» » »

A Silent Film, Lamplight Tabs (ver.1)

Artists:  A B C D E F G H I J K L M N O P Q R S T U V W X Y Z # 

Lamplight Tabs (ver.1)

A Silent Film Tabs
 Rating:
4/5 (4 votes)
Lamplight lessons Tabs too difficult? Try these video lessons and learn fast
1
                
Intro
e|---------------------------------------------------------------------------|
B|---------------------------------------------------------------------------|
G|-10-10-10-10-10-10/9--7-7-7-7-7-7-9b--------------9b-----------------------|
D|--------------------------------------7-7-7-7-7-7--------------------------|
A|------------------------------------------------------10101010101010101010-|
E|---------------------------------------------------------------------------|

e|-----------------------------------------------------------------|
B|-----------------------------------------------------------------|
G|-10-10-10-10-10-10/9--7-7-7-7-7-7-9b--------------9b-------------|
D|--------------------------------------7-7-7-7-7-7----9999999999--|
A|-----------------------------------------------------------------|
E|-----------------------------------------------------------------|

Verse (REST)

Pre Chorus (timings a bit tricky)
e|----------------------------------------------------------|
B|----------------------------------------------------------|
G|-12~10-9-10~---9b-----9b--0~----12~10-9-10~---9b----9b----|
D|-------------------7~----------------------------7~----9~-|
A|----------------------------------------------------------|
E|----------------------------------------------------------|

Chorus
e|---------------------------------------------------------------------------|
B|---------------------------------------------------------------------------|
G|-10-10-10-10-10-10/9--7-7-7-7-7-7-9b--------------9b-----------------------|
D|--------------------------------------7-7-7-7-7-7--------------------------|
A|------------------------------------------------------10101010101010101010-|
E|---------------------------------------------------------------------------|

e|-----------------------------------------------------------------|
B|-----------------------------------------------------------------|
G|-10-10-10-10-10-10/9--7-7-7-7-7-7-9b--------------9b-------------|
D|--------------------------------------7-7-7-7-7-7----9999999999--|
A|-----------------------------------------------------------------|
E|-----------------------------------------------------------------|

Verse (REST)

Pre Chorus (timings a bit tricky)
e|----------------------------------------------------------|
B|----------------------------------------------------------|
G|-12~10-9-10~---9b-----9b--0~----12~10-9-10~---9b----9b----|
D|-------------------7~----------------------------7~----9~-|
A|----------------------------------------------------------|
E|----------------------------------------------------------|

Chorus 
e|---------------------------------------------------------------------------|
B|---------------------------------------------------------------------------|
G|-10-10-10-10-10-10/9--7-7-7-7-7-7-9b--------------9b-----------------------|
D|--------------------------------------7-7-7-7-7-7--------------------------|
A|------------------------------------------------------10101010101010101010-|
E|---------------------------------------------------------------------------|

e|-----------------------------------------------------------------|
B|-----------------------------------------------------------------|
G|-10-10-10-10-10-10/9--7-7-7-7-7-7-9b--------------9b-------------|
D|--------------------------------------7-7-7-7-7-7----9999999999--|
A|-----------------------------------------------------------------|
E|-----------------------------------------------------------------|


e|---------------------------------------------------------------------------|
B|---------------------------------------------------------------------------|
G|-10-10-10-10-10-10/9--7-7-7-7-7-7-9b--------------9b-----------------------|
D|--------------------------------------7-7-7-7-7-7--------------------------|
A|------------------------------------------------------10101010101010101010-|
E|---------------------------------------------------------------------------|

e|--------------------------------------------------------|
B|--------------------------------------------------------|
G|-10-10-10-10-10-10/9--7-7-7-7-7-7-9b--------------9b----|
D|--------------------------------------7-7-7-7-7-7----9~-|
A|--------------------------------------------------------|
E|--------------------------------------------------------|

Bridge (x4) (3.04-3.14) 
e|----------------|
B|----------------|
G|-5h777777777777-|
D|----------------|
A|----------------|
E|----------------|

Chorus 
e|---------------------------------------------------------------------------|
B|---------------------------------------------------------------------------|
G|-10-10-10-10-10-10/9--7-7-7-7-7-7-9b--------------9b-----------------------|
D|--------------------------------------7-7-7-7-7-7--------------------------|
A|------------------------------------------------------10101010101010101010-|
E|---------------------------------------------------------------------------|

e|-----------------------------------------------------------------|
B|-----------------------------------------------------------------|
G|-10-10-10-10-10-10/9--7-7-7-7-7-7-9b--------------9b-------------|
D|--------------------------------------7-7-7-7-7-7----9999999999--|
A|-----------------------------------------------------------------|
E|-----------------------------------------------------------------|

e|----------------------------------------------------------|
B|----------------------------------------------------------|
G|-10-10-10-10-10-10/9--7-7-7-7-7-7-9b--------------9b------|
D|--------------------------------------7-7-7-7-7-7---------|
A|------------------------------------------------------10~-|
E|----------------------------------------------------------|
            
Submit corrections

comments powered by Disqus
↑ Back to top | A Silent Film Tabs for Lamplight. Lyrics for acoustic guitar and electric guitar. 1 Tablatures and chords are parodies/interpretations of the original songs. You may use it for private study, scholarship, research or language learning purposes only