» » »

A Silent Film, Julie June Bass tabs (ver.1)

Artists:  A B C D E F G H I J K L M N O P Q R S T U V W X Y Z # 

Julie June Bass tabs (ver.1)

A Silent Film Tabs
 Rating:
4/5 (4 votes)
Julie June lessons Tabs too difficult? Try these video lessons and learn fast
1
                0.06 - 0.29 (x2)
G|--------------------------------------------------------------------------|
D|--------------------------------------------------------------------------|
A|-11(x4)\6—-11(x6)-66--11(x6)-66—11(x8)---10-(x6)-66—-10-(x6)-66---13(x16)-|
E|--------------------------------------------------------------------------|

0.41 - 0.52
G|----------12-----------15----------12-----------10-12-|
D|------------------------------------------------------|
A|-10-11-13-----10-11-13----10-11-13----10-11-13--------|
E|------------------------------------------------------|

0.52 - 1.04
G|--------------------------------------------------------------------------|
D|--------------------------------------------------------------------------|
A|-11(x4)\6—-11(x6)-66--11(x6)-66—11(x8)---10-(x6)-66—-10-(x6)-66---13(x16)-|
E|--------------------------------------------------------------------------|

1.04 - 1.28
G|----------12-----------15----------12-----------10-12-------------------------------------|
D|--------------------------------------------------------------5-------6-------5-------3-5-|
A|-10-11-13-----10-11-13----10-11-13----10-11-13--------------------------------------------|
E|--------------------------------------------------------3-4-6---3-4-6---3-4-6---3-4-6-----|

1.28 - 1.52(x2)
G|--------------------------------------------------------------------------|
D|--------------------------------------------------------------------------|
A|-11(x4)\6—-11(x6)-66--11(x6)-66—11(x8)---10-(x6)-66—-10-(x6)-66---13(x16)-|
E|--------------------------------------------------------------------------|


Chorus 1.52- 2.15 (x2)
G|------------------------------------------------------------------------------------------|
D|---------------------------------------------------------------1-3--------------------1-3-|
A|-------------------6-8------------------6-8----------------1-3-------------------1-3------|
E|-44444444-4444-4-6----44444444-4444-4-6------11111111-1111--------11111111-1111-----------|

REST

2.39 - 3.02 (x2)
G|--------------------------------------------------------------------------|
D|--------------------------------------------------------------------------|
A|--------------------------------------------------------------------------|
E|-44444444-44444444-44444444-44444444-33333333-33333333-666666666-66666666-|


3.02 - 3.25(x2)
G|-----------------------------------|
D|-------5-------6-------5-------3-5-|
A|-----------------------------------|
E|-3-4-6---3-4-6---3-4-6---3-4-6-----|
            
Submit corrections

comments powered by Disqus
↑ Back to top | A Silent Film Bass for Julie June. Lyrics for acoustic guitar and electric guitar. 1 Tablatures and chords are parodies/interpretations of the original songs. You may use it for private study, scholarship, research or language learning purposes only