» » »

Whispering Silence Tabs (ver.2)

Artists:  A B C D E F G H I J K L M N O P Q R S T U V W X Y Z # 

Whispering Silence Tabs (ver.2)

As I Lay Dying
Rating:
0/5 (0 votes)

Tabs too difficult? Try these video lessons and learn fast.
                -------------------------------------------------------------------------------
                             Whispering Silence - As I Lay Dying
-------------------------------------------------------------------------------

Tuning: Drop C#

           P.H
D#|--------------------------------------------------------------------|
A#|--------------------------------------------------------------------|
F#|--7v-7-7-7---7h9h10p9p7h9p7-----------------------------------------|
C#|----------------------------10p7h10h7s5-----5-------------10----12--|
G#|----------------------------------------8p5---5-8p5--5s10----10-----|
C#|--------------------------------------------------------------------|

                                                                P.H
D#|--------------------------------------------------------------------|
A#|--------------------------------------------------------------------|
F#|-----------------------------12----------7h9h10p9p7h9---------7s2---|
C#|--------10----10h12s14--10v-----12-s12v---------------10-7-12-------|
G#|--10h12----12-------------------------------------------------------|
C#|--------------------------------------------------------------------|


D#|-----------------------------------------------|
A#|-----------------------------------------------|
F#|----------------------------------7-9----9h10--|
C#|--5-3-3h5p3---3-----------------7-----12-------|
G#|------------7---7--5v--s8-5v--8----------------|
C#|-----------------------------------------------|
10h12h13T17p13p12p10

D#|--------------10h12h13p12p10----------------|
A#|-----------10----------------10s6-----------|
F#|----7h9h10------------------------9h10p9p7--|
C#|--7-----------------------------------------|
G#|--------------------------------------------|
C#|--------------------------------------------|


D#|--------------10h12h13t17p13p12p10---------------------------------------|
A#|-----------10----------------------13h15p13p10--13b15v--13b15b13--10-13--|
F#|----7h9h10---------------------------------------------------------------|
C#|--7----------------------------------------------------------------------|
G#|-------------------------------------------------------------------------|
C#|-------------------------------------------------------------------------|


D#|--10----------10-12-12b12b12-10-----------|
A#|-----13-10-13-------------------13s15-----|
F#|--------------------------------------14--|
C#|------------------------------------------|
G#|------------------------------------------|
C#|------------------------------------------|


D#|-----------------------------------------------15h17p15-----------------|
A#|-----------------------15-17-15-17-18-15-17-18----------18-17-15-17-18--|
F#|--15-14-15-17-14-15-17--------------------------------------------------|
C#|------------------------------------------------------------------------|
G#|------------------------------------------------------------------------|
C#|------------------------------------------------------------------------|


D#|--17h20p17-------------20p17--20b22v-----|
A#|-----------20p18p17h18-------------------|
F#|-----------------------------------------|
C#|-----------------------------------------|
G#|-----------------------------------------|
C#|-----------------------------------------|
            
Tabs too difficult? Try these video lessons and learn fast.




comments powered by Disqus
↑ Back to top | Tablatures and chords are parodies/interpretations of the original songs. You may use it for private study, scholarship, research or language learning purposes only