>
 >
Undefined

Undefined Guitar Tabs

As I Lay Dying - Undefined chords, tabs, tablatures, lyrics

Guitar lessons | Add/correct | Request | Top 50 tabs Artists:  A B C D E F G H I J K L M N O P Q R S T U V W X Y Z 0-9

Undefined Guitar Tabs – As I Lay Dying

CD, Sheet music, Poster

Do you like Undefined? Share with your friends now
Bass TabsBass Tabs v2Tabs
Who? As I Lay Dying
What? Undefined
Where? Frail Words Collapse
Tuning:CGCFAD

 (Gtr.1) *Not Exact Strumming Shown*
D|-----------------------------------------------------------------------|
A|-----------------------------------------------------------------------|
F|-----------------------------------------------------------------------|
C|-0000-3333-222-3333-555-333-222-0000-3333-2222-3333-7777-5555-3333-2222|
G|-----------------------------------------------------------------------|
C|-----------------------------------------------------------------------|

D|------------------------------------------------------------------------|
A|------------------------------------------------------------------------|
F|----------------------------------------------------------------2-------|
C|-0000-3333-2222-3333-5555-3333-222-00000-3333-2222-3333-5-3-2-3---5-3-2-|
G|------------------------------------------------------------------------|
C|------------------------------------------------------------------------|


 (Gtr.2)
  0:00
D|-----------------------------------------------------------------|
A|-----------------------------------------------------------------|
F|-----------------------------------------------------------------|
C|-0------------------------------5---------------8-------7--------|
G|-0------------------------------5---------------8-------7--------|
C|-0------------------------------5---------------8-------7--------|

D|-----------------------------------------------------------------|
A|-----------------------------------------------------------------|
F|-----------------7-------------10---------------12------10-----9-|
C|-0---------------x--------------x----------------x-------x-----x-|
G|-0---------------5--------------8---------------10-------8-----7-|
C|-0---------------------------------------------------------------|

  0:11 + 1:42
D|-----------------------------------------------------------------|
A|-----------------------------------------------------------------|
F|------------------------------------------------5555555555555555-|
C|-555555555555555588888888888888877777777777777775555555555555555-|
G|-555555555555555588888888888888877777777777777773333333333333333-|
C|-55555555555555558888888888888887777777777777777-----------------|

D|-----------------------------------------------------------------|
A|-----------------------------------------------------------------|
F|--------------------------------77777777777777775555555555555555-|
C|-555555555555555588888888888888877777777777777775555555555555555-|
G|-555555555555555588888888888888855555555555555553333333333333333-|
C|-5555555555555555888888888888888---------------------------------|

  0:33 + 1:52
D|-------------------------------------------------------------------|
A|-------------------------------------------------------------------|
F|-7-7-7-7-7-7-7-7-1010101010101010-9-9-9-9-9-9-9-9-1212121212121212-|
C|-x-x-x-x-x-x-x-x--x-x-x-x-x-x-x-x-x-x-x-x-x-x-x-x--x-x-x-x-x-x-x-x-|
G|-5-5-5-5-5-5-5-5--8-8-8-8-8-8-8-8-7-7-7-7-7-7-7-7-1010101010101010-|
C|-------------------------------------------------------------------|

D|--------------------------------------------------------------------|
A|--------------------------------------------------------------------|
F|-7-7-7-7-7-7-7-7-1010101010101010-1414141414141414-1212121212121212-|
C|-x-x-x-x-x-x-x-x--x-x-x-x-x-x-x-x--x-x-x-x-x-x-x-x--x-x-x-x-x-x-x-x-|
G|-5-5-5-5-5-5-5-5--8-8-8-8-8-8-8-8-1212121212121212-1010101010101010-|
C|--------------------------------------------------------------------|



 (Gtr.1 & 2)
    0:55 
D|-------------------------------------------------------------------|
A|-------------------------------------------------------------------|
F|-------------------------------------------------------------------|
C|-000-000---000-000---000-000-000-000---000-000---------------------|
G|-000-000---000-000---000-000-000-000---000-000---0h5h7p5-0h5h8p5p0-|
C|-000-000---000-000---000-000-000-000---000-000---------------------|

D|-------------------------------------------------------------------|
A|-------------------------------------------------------------------|
F|-------------------------------------------------------------------|
C|-000-000---000-000---000-000-000-000---000-000---------------------|
G|-000-000---000-000---000-000-000-000---000-000---0h5h8p5-0h4h7p4p0-|
C|-000-000---000-000---000-000-000-000---000-000---------------------|

  1:06 + 2:05
D|-------------------------------------------------------------|
A|-------------------------------------------------------------|
F|-------------------------------------------------------------|
C|-000----------------------000-000----------------------------|
G|-000--0h5h7p5-0h5h8p5p0---000-000--0h5h7p5-0h5h8p5-0h4h7p4p0-|
C|-000----------------------000-000----------------------------|

  1:17
D|---------------------------|
A|---------------------------|
F|---------------------------|
C|-7------------7------------|
G|--8--5-7-5-8---8--5-8-4-7--|
C|---------------------------|

Then it repeats itself. Listen To The Song To Find Your Place.
Questions? Comments? E-mail me!





Comments


Popular As I Lay Dying tabs & chords
A Thousand Steps Bass Tabs
Blood Turned To Tears Bass Tabs
Through Stuggle Break Down Only Bass Tabs
Losing Sight 3 Tabs
Parallels 3 Tabs
Repeating Yesterday 4 Tabs
Separation 2 Tabs
Surounded Intro Tabs
The Sound Of Truth Tabs
Through Struggle Tabs


Song lyrics



↑ Back to top | Tablatures and chords are parodies/interpretations of the original songs. You may use it for private study, scholarship, research or language learning purposes only
© 2014 AZChords.com Contact us | Privacy policy | DMCA | Add/correct tabs | Request tabs | Top 50 tabs