>
 >
The Sound Of Truth 4

The Sound Of Truth 4 Guitar Tabs

As I Lay Dying - The Sound Of Truth 4 chords, tabs, tablatures, lyrics

Guitar lessons | Add/correct | Request | Top 50 tabs Artists:  A B C D E F G H I J K L M N O P Q R S T U V W X Y Z 0-9

The Sound Of Truth 4 Guitar Tabs – As I Lay Dying

CD, Sheet music, Poster

Do you like The Sound Of Truth 4? Share with your friends now
Bass TabsTabsTabs v2Tabs v3Tabs v4
-------------------------------------------------------------------------------
                             THE SOUND OF TRUTH - As I Lay Dying
-------------------------------------------------------------------------------

Tuning:  Drop D
e|--------------------------------------------17---------------------22b-17--|
B|-------3tr5t6tr8tr10tr12tr13tr15-17~~~~~~-------18-------------18----------|
G|--5tr7----------------------------------------------19------19-------------|
D|--------------------------------------------------------20-----------------|
A|---------------------------------------------------------------------------|
E|---------------------------------------------------------------------------|

e|---------------------------------------------------------------------------------------------|
B|--17h18p17-17p15-----------------------------------------------------------------------------|
G|-----------------17--17b17b17p14p12h17p14p12h17p14p12h17p14p12h17p14p12h17p14p12h14p12p10/12-|
D|---------------------------------------------------------------------------------------------|
A|---------------------------------------------------------------------------------------------|
E|---------------------------------------------------------------------------------------------|

e|------------------------------------------------------------------------------|
B|---------------------13-15-17*----17h18p17-17----13*--------------------------|
G|-19------14-------14-----------15-------------17------------------------------|
D|------------14-14-------------------------------------------------------------|
A|------------------------------------------------------------------------------|
E|------------------------------------------------------------------------------|

e|------------------------------------------------------------------------------|
B|------------------------------------------------------------------------------|
G|-12h14t17p14p12t19p14p12t17p14p12t17p14p12t19p14p12t17p14p12t17p14p12t19p14p12|
D|------------------------------------------------------------------------------|
A|------------------------------------------------------------------------------|
E|------------------------------------------------------------------------------|

e|---------------------------------------------------------------------------|
B|-11h15t17p15p11t18p15p11t17p15p11t18p15p11t17p15p11t18p15p11t17p15p11------|
G|---------------------------------------------------------------------------|
D|---------------------------------------------------------------------------|
A|---------------------------------------------------------------------------|
E|---------------------------------------------------------------------------|

e|---------------------------------------------------------------------------|
B|--15h18t20p18p15t22p18p15t20p18p15t22p18p15t22p18p15t22-22b~~~~~~~~~~~~~~~~|
G|---------------------------------------------------------------------------|
D|---------------------------------------------------------------------------|
A|---------------------------------------------------------------------------|
E|---------------------------------------------------------------------------|


| /  slide up
| \  slide down
| h  hammer-on
| p  pull-off
| ~  vibrato
| +  harmonic
| x  Mute note
| t   Tap
| *  Pinch Harmonic
| tr Trill (6h7p6h7p6 etc.)
===============================================================================





Comments


Popular As I Lay Dying tabs & chords
Meaning In Tragedy Bass Tabs
Within Destruction Bass Tabs
Falling Upon Deaf Ears Drum Tabs
94 Hours 1 Tabs
Behind Me Lies Another Fallen Soldier 1 Tabs
Bury Us All Tabs
Collision Tabs
Repeating Yesterday 1 Tabs
Resilience Tabs
Truth Of My Perception 3 Tabs


Song lyrics



↑ Back to top | Tablatures and chords are parodies/interpretations of the original songs. You may use it for private study, scholarship, research or language learning purposes only
© 2014 AZChords.com Contact us | Privacy policy | DMCA | Add/correct tabs | Request tabs | Top 50 tabs