>
 >
Song 10

Song 10 Guitar Tabs

As I Lay Dying - Song 10 chords, tabs, tablatures, lyrics

Guitar lessons | Add/correct | Request | Top 50 tabs Artists:  A B C D E F G H I J K L M N O P Q R S T U V W X Y Z 0-9

Song 10 Guitar Tabs – As I Lay Dying

CD, Sheet music, Poster

Do you like Song 10? Share with your friends now
Tabs
AS I LAY DYING
SONG 10

tuning (low to high: cgcfad)

intro
gtr1(clean)
|-----------------
|-9--9--9---------
|-9--9--9--------- I just gave the chords you can figure out
|-0--X--X--------- the strumming.
|----9--7---------
|-----------------

This next part I think is with both guitars but I will tab it 
for just one because I can't stand not being able to play one
part and it not sound right without the other.

|-4--4--4---------
|-5--5--5---------
|-X--X--4---------
|-2--2--2--2~-----
|-0--X--2--0~-----
|-0--4--2--0~-----

|------------------------------------------------
|----5---5--------------5---5-----0h5------------
|------4-------4-4~-------4-----------4~---------
|------------------------------------------------
|------------------------------------------------
|-4---------4--------0---------0-----------------

|------------------------------------------------
|----5---5-----------------5----------5----------
|------4-------4-4~------4---4------4---4--------
|----------------------2----------2--------------
|------------------------------------------------
|-4---------4--------0----------0----------------

Part before distorted part

|------------------------------------------------
|-------9-------10-9---10-9----------------------
|-----9---9----------8------8--------------------
|---9--------------------------------------------
|-7----------0-----------------------------------
|------------0-----------------------------------

Gtrs1&2
|------------------------------------------------
|------------------------------------------------
|-------------------------------------7-7-7-7---- Guitar 2 plays the octaves 
|---6-7-6-7----------6-7-6-7----------X-X-X-X---- Guitar 1 plays the 0's.
|---4-4-4-4--0-0--0--4-4-4-4--0-0--0--5-5-5-5----
|---4-4-4-4--0-0--0--4-4-4-4--0-0--0-------------
P.M          - -              - - 

Gtr1
|------------------------------------------------
|------------------------------------------------
|------------------------------------------------
|------------------------------------------------
|-0-0-0-0-0-0-0-0-0-0-0-0-0-0-0-0-0-0------------
|-0-0-0-0-0-0-0-0-0-0-0-0-0-0-0-0-0-0------------

Gtr2
|------------------------------------------------
|------------------------------------------------
|-19-19-19-19-19-19-19-19-19-19-19-19-19---------
|-X--X--X--X--X--X--X--X--X--X--X--X--X----------
|-17-17-17-17-17-17-17-17-17-17-17-17-17---------
|------------------------------------------------

Gtrs1&2
|------------------------------------------------
|------------------------------------------------
|-------------------------------------7-7-7-7---- 
|---6-7-6-7----------6-7-6-7----------X-X-X-X---- 
|---4-4-4-4--0-0--0--4-4-4-4--0-0--0--5-5-5-5----
|---4-4-4-4--0-0--0--4-4-4-4--0-0--0-------------
P.M          - -              - - 

Gtr1
|------------------------------------------------
|------------------------------------------------
|------------------------------------------------
|------------------------------------------------
|-0-0-0-0-0-0-0-0-0-0-0-0-0-0-0-0-0-0------------
|-0-0-0-0-0-0-0-0-0-0-0-0-0-0-0-0-0-0------------

Gtr2
|------------------------------------------------
|------------------------------------------------
|-19-19-19-19-19-19-19-19-19-19-19-19-19---------
|-X--X--X--X--X--X--X--X--X--X--X--X--X----------
|-17-17-17-17-17-17-17-17-17-17-17-17-17---------
|------------------------------------------------

Gtr1
|------------------------------------------------
|------------------------------------------------
|------------------------------------------------
|------------------------------------------------
|-4-4-4-4-4-4-4-4-4-4-4-4-4-4-4-4-4-4-4-4-4------
|-4-4-4-4-4-4-4-4-4-4-4-4-4-4-4-4-4-4-4-4-4------

Gtr2
|------------------------------------------------
|------------------------------------------------
|-14-14-14-13-13-13-9-9-9/14-14-14-13-13-9-9-----
|-X--X--X--X--X--X--X-X-X----X--X--X--X--X-X-----
|-12-12-12-11-11-11-7-7-7/12-12-12-11-11-7-7-----
|------------------------------------------------

Gtr1
|------------------------------------------------
|------------------------------------------------
|------------------------------------------------
|------------------------------------------------
|-0-0-0-0-0-0-0-0-0-0-0-0-0-0-0-0-0--------------
|-0-0-0-0-0-0-0-0-0-0-0-0-0-0-0-0-0--------------

Gtr2
|----------0~-----------0~--------0~-------------
|----------0~-----------0~--------0~-------------
|-13/14-14-----13/14-14-----13/14----------------
|-X-----X------X-----X------X--------------------
|-11/12-12-----11/12-12-----11/12----------------
|-0-----0------0-----0------0--------------------

Gtr1
|------------------------------------------------
|------------------------------------------------
|------------------------------------------------
|------------------------------------------------
|-4-4-4-4-4-4-4-4-4-4-4-4-4-4-4-4-4-4-4-4-4------
|-4-4-4-4-4-4-4-4-4-4-4-4-4-4-4-4-4-4-4-4-4------

Gtr2
|------------------------------------------------
|------------------------------------------------
|-14-14-14-13-13-13-9-9-9/14-14-14-13-13-9-9-----
|-X--X--X--X--X--X--X-X-X----X--X--X--X--X-X-----
|-12-12-12-11-11-11-7-7-7/12-12-12-11-11-7-7-----
|------------------------------------------------

Gtr1
|---------------------------------------------------
|---------------------------------------------------
|---------------------------------------------------
|---------------------------------------------------
|-0-0-0-0-0-0-0-0-0-0-0-0-0-0-0-0-0-0-0-0-0-0-0-0---
|-0-0-0-0-0-0-0-0-0-0-0-0-0-0-0-0-0-0-0-0-0-0-0-0---

Gtr2
|-16-16-16-12-12-12-17-17-17-12-12-12--16/17\16\12--
|-X--X--X--X--X--X--X--X--X--X--X--X---X------------
|-13-13-13-9--9--9--14-14-14-9--9--9---13/14\13\9---
|---------------------------------------------------
|---------------------------------------------------
|---------------------------------------------------

That's pretty much it. Some of the intro part repeats at the end just listen
to it. I have tabbed this song listening to it VERY CAREFULLY many times so
I am sure most of it could be right.





Comments


Popular As I Lay Dying tabs & chords
94 Hours 2 Bass Tabs
A Thousand Steps Bass Tabs
Falling Upon Deaf Ears Bass Tabs
When This World Fades Bass Tabs
Bury Us All Tabs
Elegy Live Tabs
Paralyzed Tabs
Truth Of My Perception 3 Tabs
Upside Down Kingdom Intro Tabs
Wrath Upon Ourselves Tabs


Song lyrics



↑ Back to top | Tablatures and chords are parodies/interpretations of the original songs. You may use it for private study, scholarship, research or language learning purposes only
© 2014 AZChords.com Contact us | Privacy policy | DMCA | Add/correct tabs | Request tabs | Top 50 tabs