>
 >
Morning Waits

Morning Waits Guitar Tabs

As I Lay Dying - Morning Waits chords, tabs, tablatures, lyrics

Guitar lessons | Add/correct | Request | Top 50 tabs Artists:  A B C D E F G H I J K L M N O P Q R S T U V W X Y Z 0-9

Morning Waits Guitar Tabs – As I Lay Dying

CD, Sheet music, Poster

Do you like Morning Waits? Share with your friends now
Bass TabsTabsTabs v2Tabs v3
Here is the hole tab, it sounds okey. I was sick of waiting so i tabbed this out. Enjoy! 
RATE!

Drop C-

  Intro Vers I, Guitar I
||---------------------------------------------------------------------|
||---------------------------------------------------------------------|
||-----7---7-----7-----7---10-9-5-7-----7---7-----7-----7---10-12-10-9-|
||-0-7---7---7-7---7-7---7----------0-7---7---7-7---7-7---7------------|
||---------------------------------------------------------------------|
||---------------------------------------------------------------------| x2

  Intro Vers I, Guitar II
||---------------------------------------------------------------------|
||---------------------------------------------------------------------|
||---------------------------------------------------------------------|
||---------------------------------------------------------------------|
||-0-0-0-0-0-0-0-0-0-0-0-0-0-0-0-0-0-0-0-0-0-0-0-0-0-0-0-0-0-0-0-0-0-0-|
||-0-0-0-0-0-0-0-0-0-0-0-0-0-0-0-0-0-0-0-0-0-0-0-0-0-0-0-0-0-0-0-0-0-0-|

||---------------------------------------------------------------------------------|
||---------------------------------------------------------------------------------|
||---------------------------------------------------------------------------------|
||---------------------------------------------------------------------------------|
||-8-8-8-8-8-8-8-8-8-8-8-8-8-8-8-8-10-10-10-10-10-10-10-10-10-10-10-10-10-10-10-10-|
||-8-8-8-8-8-8-8-8-8-8-8-8-8-8-8-8-10-10-10-10-10-10-10-10-10-10-10-10-10-10-10-10-|

  Intro Vers II
||----------------------------------------------------------------------------------|
||-------------------------------10-8------------------------------------10-11-10-8-|
||-----10-----10---10-----10----------9-10-----10-----10---10-----10----------------|
||----------------------------------------------------------------------------------|
||-000----000---------000----000-----------000----000---------000----000------------|
||-000----000----0----000----000-----------000----000----0----000----000------------|
   ...    ...    .    ...    ...           ...    ...    .    ...    ...
||---------------------------------------------------------------------------------------------|
||-------------------------------10-8----------------------------------------------------------|
||-----10-----10---10-----10----------9-10-------10--------10----10---------10-----------------|
||------------------------------------------------------------------------------------9-10-9-7-|
||-888----888---------888----888-----------101010----101010----------101010----101010----------|
||-888----888----8----888----888-----------101010----101010----10----101010----101010----------|
   ...    ...    .    ...    ...           . . .     . . .     .     . . .     . . .

  Vers I
||-----------------------------------------------------------------------|
||-----------------------------------------------------------------------|
||-----------------------------------------------------------5-4---------|
||-----10---9---10---7---10-9---10---7-----10---9---10---7---------5---7-|
||-----------------------------------------------------------------------|
||-0-0----0---0----0---0------0----0---0-0----0---0----0---0-----0---0---|
   . .    .   .    .   .      .    .   . .    .   .    .   .     .   .

  Vers II
||--------------------------------------------------------------|
||--------------------------------------------------------------|
||------55------44------00------55------44------77--------------|
||-7777----7777----7777----7777----7777----7777-----------------|
||--------------------------------------------------------------|
||--------------------------------------------------------------|

||--------------------------------------------------------------|
||--------------------------------------------------------------|
||------55------44------00--------------------------------------|
||-7777----7777----7777----3333-2222-3333-5555------------------|
||--------------------------------------------------------------|
||--------------------------------------------------------------|

  Vers III, Guitar I
||--------------------------------------------------------------|
||--------------------------------------------------------------|
||--9-----------------------------------------------------------|
||----10----12-10-9-------12-9----10-9--------------------------|
||-------12---------7-10-------10------12-10--------------------|
||--------------------------------------------------------------|

  Guitar II
||--------------------------------------------------------------|
||--------------------------------------------------------------|
||--------------------------------------------------------------|
||--------------------------------------------------------------|
||-7-7-7--7-7--7--77777--77777--5-5-5--5-5--5--55555--55555-----|
||-7-7-7--7-7--7--77777--77777--5-5-5--5-5--5--55555--55555-----|
   . .    . .  .  ....   ....   . .    . .  .  ....   ....
||---------------------------------------------------------------|
||---------------------------------------------------------------|
||---------------------------------------------------------------|
||---------------------------------------------------------------|
||-0-0-0--0-0--0--00000--00000--3-3-3--3-3--3--1010101010--55555-|
||-0-0-0--0-0--0--00000--00000--3-3-3--3-3--3--1010101010--55555-|
   . .    . .  .  ....   ....   . .    . .  .  . . . .     ....

  Vers IIII
||------------------------------------------------------------------|
||------------------------------------------------------------------|
||------------------------------------------------------------------|
||------------------------------------------------------------------|
||-----5-----5---5-----5---8-7-3-5-----5-----5---5-----5---8-10-8-7-|
||-0-0---0-0---0---0-0---0---------0-0---0-0---0---0-0---0----------|
   . .   . .   .   . .   .         . .   . .   .   . .   .
||--------------------------------------------------------------------------|
||--------------------------------------------------------------------------|
||--------------------------------------------------------------------------|
||--------------------------------------------------------------------------|
||-----5-----5---5-----5---8-7-3-5-------5-------5----5-------5----8-10-8-7-|
||-8-8---8-8---8---8-8---8---------10-10---10-10---10---10-10---10----------|
   . .   . .   .   . .   .         .  .    .  .    .    .  .    .
||------------------------------------------------------------------------|
||------------------------------------------------------------------------|
||------------------------------------------------------------------------|
||------------------------------------------------------------------------|
||-000-8-000-8---8-000-8-000-12-10-7-8-000-8-000-8---8-000-8-000-8-10-8-7-|
||-000---000---0---000---000-----------000---000---0---000---000----------|
   ...   ...   .   ...   ...           ...   ...   .   ...   ...
||---------------------------------------------------------------------------------------|
||---------------------------------------------------------------------------------------|
||---------------------------------------------------------------------------------------|
||----------------------------------------------------------------------------10-12-10-9-|
||-888-8-888-8---8-888-8-888-12-10-7-8-101010-8-101010-8----8-101010-8-101010------------|
||-888---888---8---888---888-----------101010---101010---10---101010---101010------------|
   ...   ...   .   ...   ...           . . .    . . .    .    . . .    . . .

  Repeat Vers I

  Repeat Vers II

  Repeat Vers III

  Guitar I
||--------------------------------------------------------------|
||--------------------------------------------------------------|
||---9-10---10-12---12---14-12---12-10---10---------------------|
||--------------------------------------------------------------|
||--------------------------------------------------------------|
||-0------0-------0----0-------0-------0------------------------|
   .      .       .    .       .       .

Thanks!!





Comments


Popular As I Lay Dying tabs & chords
Distance Is Darkness Bass Tabs
An Ocean Between Us 1 Tabs
Confined 6 Tabs
I Never Wanted Tabs
Losing Sight 3 Tabs
Meaning In Tragedy 2 Tabs
Morning Waits Intro Tabs
Repeating Yesterday 6 Tabs
The Only Constant Is Change Tabs
The Only Constant Is Change Intro Tabs


Song lyrics



↑ Back to top | Tablatures and chords are parodies/interpretations of the original songs. You may use it for private study, scholarship, research or language learning purposes only
© 2014 AZChords.com Contact us | Privacy policy | DMCA | Add/correct tabs | Request tabs | Top 50 tabs