» » »

As I Lay Dying, Losing Sight Tabs (ver.1)

Artists:  A B C D E F G H I J K L M N O P Q R S T U V W X Y Z # 

Losing Sight Tabs (ver.1)

As I Lay Dying Tabs
Rating:
0/5 (0 votes)
Losing Sight lessons Tabs too difficult? Try these video lessons and learn fast
                Tuning: CGCFAD

D----------------------------------------------|
A----------------------------------------------|
F----------------------------------------------|
C-000-000-000---------000-000-----------7------|
G-000-000-000---5-8---000-000---0-5-0-----7----|
C-000-000-000---------000-000------------------|
  ... ... ...         ... ...

D----------------------------------------------|
A----------------------------------------------|
F----------------------------------------------|
C-000-000-000---------000-------000---2--------|
G-000-000-000---5-8---000---3---000-0----------|
C-000-000-000---------000-3-----000------------|
  ... ... ...         ...       ...

D-----------------------------------------------|
A-----------------------------------------------|
F-----------------------------------------------|
C-0---0-000-000---------7-7-5---7-5-------------|
G-0---0-000-000---5-8---------------8-7-8-7-5-3-|
C-0---0-000-000---------------------------------|
      . ... ...

D----------------------------------------------|
A----------------------------------------------|
F----------------------------------------------|
C-0---000-000---------7-7-5---10-8-7-5-8-7-5---|
G-0---000-000---5-8--------------------------8-|
C-0---000-000----------------------------------|
      ... ...

D----------------------------------------------|
A----------------------------------------------|
F----------------------------------------------|
C-0-000000-------------------------------------|
G-0-000000---8----7----------------------------|
C-0-000000-----00---0-10-00--------------------|
    ......     ..   .    ..

D----------------------------------------------|
A----------------------------------------------|
F----------------------------------------------|
C-0-000000-----------7---10--------------------|
G-0-000000---5p0-5/8---7----7------------------|
C-0-000000-------------------------------------|
    ......

D----------------------------------------------|
A----------------------------------------------|
F----------------------------------------------|
C-0-000000-------------------------------------|
G-0-000000---8----7----------------------------|
C-0-000000-----00---0-10-00--------------------|
    ......     ..   .    ..

D----------------------------------------------|
A----------------------------------------------|
F----------------------------------------------|
C-0-000000---7777-10101010---------------------|
G-0-000000---7777-10101010---------------------|
C-0-000000-------------------------------------|
    ......


D----------------------------------------------|
A----------------------------------------------|
F----------------------------------------------|
C-000-000-000---------000-000-----------7------|
G-000-000-000---5-8---000-000---0-5-0-----7----|
C-000-000-000---------000-000------------------|
  ... ... ...         ... ...

D----------------------------------------------|
A----------------------------------------------|
F-----------------------------7---10-----------|
C-000-000-000---------7---------7----7---------|
G-000-000-000---5-8-----8-7-8------------------|
C-000-000-000----------------------------------|
  ... ... ...         . . . .

D----------------------------------------------|
A----------------------------------------------|
F----------------------------------------------|
C-000-000-000---------000-000-----------7------|
G-000-000-000---5-8---000-000---0-5-0-----7----|
C-000-000-000---------000-000------------------|
  ... ... ...         ... ...

D----------------------------------------------|
A----------------------------------------------|
F----------------------------------------------|
C-000-000-000---------0-0-000-000-------7------|
G-000-000-000---5-8---0-0-000-000-0-5-7--------|
C-000-000-000---------0-0-000-000--------------|
  ... ... ...         . . ... ...
            
Submit corrections

comments powered by Disqus
↑ Back to top | As I Lay Dying Tabs for Losing Sight. Lyrics for acoustic guitar and electric guitar. Tablatures and chords are parodies/interpretations of the original songs. You may use it for private study, scholarship, research or language learning purposes only