» » »

As I Lay Dying, Forever Tabs (ver.3)

Artists:  A B C D E F G H I J K L M N O P Q R S T U V W X Y Z # 

Forever Tabs (ver.3)

As I Lay Dying Tabs
 Rating:
4/5 (4 votes)
Forever lessons Tabs too difficult? Try these video lessons and learn fast
                Tuning: Standard w/ Drop D

Riff A x4
|-------------------------------------------|
|-------------------------------------------|
|-------------------------------------------|
|----1p0------1-3p1-0------1-0-1-33-0-1-----|gtr.1
|--------1------------1---------------------|
|-00----------------------------------------|
  ..

|-------------------------------------------|
|-------------------------------------------|
|-------------------------------------------|gtr.2
|-------------------------------------------|
|-------------------------------------------|
|-00-----00-------------00-------00---------|
  ..     ..             ..       ..

Riff B x4
|-------------|---------------------|
|-------------|---------------------|
|-------------|---------------------|
|-------------|--11-1-1-1-00-0-0----|
|-------------|--11-1-1-1-00-0-0----|
|-00-0000-00--|--11-1-1-1-00-0-0----|
  .. .... ..

Fill 1
|-----------------------------------------|
|-----------------------------------------|
|-----------------------------------------|
|-----------------------------------------|
|--3----3----3----3-----------------------|
|--3*---3*---3*---3*-----/pick-slide\-----|

Riff C (verse) x2
|------------------------------------------------------------------|
|------------------------------------------------------------------|
|------------------------------------------------------------------|
|--1p0----1p0-----3p1-0--3p1-0---1-3-5-6--6-5-3-1---1p0----1p0-----|
|------1------1-----------------------------------------1------1---|
|------------------------------------------------------------------|

Fill 2
|---------------|
|---------------|
|---------------|
|---------------|
|-00-00-00-000--|
|---------------|
  .. .. .. ...

Riff A x4
Riff B x4

Riff D            d2
|----------------|---------------|--------------------|--------|
|----------------|---------------|--------------------|--------|
|----------------|---------------|--3--1--0--1--0-----|---Riff-|
|--0h1----0h1----|-0h1----0h1----|-----------------3--|-----D--|
|------1------1--|-----1------1--|--------------------|--------|
|----------------|---------------|--------------------|--------|

Riff E
|--------------------|
|--------------4--3--|
|--3--1--0--1--------|
|--------------------|
|--------------------|
|--------------------|

Riff F x4                    [1,3]     [2,4]
|---------------------------|---------|---------|
|---------------------------|--4-3-4--|--4-3-1--|
|--1-0-1-3-1-0-1-0-1-3-1-0--|---------|---------|
|---------------------------|---------|---------|
|---------------------------|---------|---------|
|---------------------------|---------|---------|

Riff G (repeat many times)
|-----------------------|  End with:|-----|
|-----------------------|           |-----|
|-----------------------|           |-----|
|-----------------------|           |--1--|
|--3-333-33--0-000-00---|           |--1--|
|--3-333-33--0-000-00---|           |--1--|
   . ... ..  . ... ..                  ^starts next riff

Riff F (kind of softly) x3
|----------------------------------------------|
|----------------------------------------------|
|----------------------------------------------|
|--111-------333--111---111-------------111----|
|-------555------------------555--333----------|
|----------------------------------------------|

Then: (to lead ointo riff G)
|------------------------|----------------------|
|------------------------|----------------------|
|------------------------|----------------------|
|--111-------333--111----|--111------------111--|
|-------555--------------|--111--555--333--111--|
|------------------------|-------555--333-------|

Riff G (repeat till finish)
|-------------------------------------------|
|-------------------------------------------|
|-------------------------------------------|
|--111-------333--111---111------------111--|
|--111--555--333--111---111--555--333--111--|
|-------555------------------555--333-------|

End on:
|-----|
|-----|
|-----|
|--1--|
|--1--|
|--1*-|
            
Submit corrections

comments powered by Disqus
↑ Back to top | As I Lay Dying Tabs for Forever. Lyrics for acoustic guitar and electric guitar. Tablatures and chords are parodies/interpretations of the original songs. You may use it for private study, scholarship, research or language learning purposes only