» » »

Forever Tabs (ver.2)

Artists:  A B C D E F G H I J K L M N O P Q R S T U V W X Y Z # 

Forever Tabs (ver.2)

As I Lay Dying
Rating:
0/5 (0 votes)

Hard to play? Try these video lessons and learn fast.
                As I Lay Dying
“Forever”
Tuning: CGCFAD (drop C)

D----------------------------------------------------------------------
A----------------------------------------------------------------------
F-----------------------------------------------------------------------
C------22-33-00------22-33-00--------33-22-33-55-33-22-----
G------------------------------------------------------------------3---
C-0-0-------------0-0--------------0-0-------------------------------

D--------------------------------------------------------------------
A-------------------------------------------------------------------
F------22-00---------22-00-----------22-00-22-33-22-00-----
C-------------33--------------33------------------------------33--
G--------------------------------------------------------------------
C-0-0------------0-0--------------0-0-----------------------------

D---------------------------------------------------
A--------------------------------------------------
F---------------------------------------------------
C-------------------------0-3333-2--------5----
G---00-0000-000-00---------------333--------
C---00-0000-000-00----------------------------

D---------------------------------------------------------
A-6-5----6-5---8-6-5-6-5-----------------------------
F-------5-----5--------------5---------------------------
C---------------------------------0-3333-2-------5-----
G---------------------------------------------333--------
C----------------------------------------------------------

thats all i have so far...check back later for the rest of the song
            
Hard to play? Try these video lessons and learn fast. | Correct




comments powered by Disqus
↑ Back to top | Tablatures and chords are parodies/interpretations of the original songs. You may use it for private study, scholarship, research or language learning purposes only