>
 >
Elegy 2

Elegy 2 Guitar Tabs

As I Lay Dying - Elegy 2 chords, tabs, tablatures, lyrics

Guitar lessons | Add/correct | Request | Top 50 tabs Artists:  A B C D E F G H I J K L M N O P Q R S T U V W X Y Z 0-9

Elegy 2 Guitar Tabs – As I Lay Dying

CD, Sheet music, Poster

Do you like Elegy 2? Share with your friends now
Bass TabsTabsTabs v2Tabs v3Tabs v4
Tuning: E Flat      (Eb Ab Db Gb Bb eb)
Bridge Pickup

	Intro/Main riff

eb|-----------------------------------------|
Bb|-----------------------------------------|
Gb|-----------------------------------------|
Db|------0h2p0-4p2p1p0------0h2p0-4p2p1p0---|
Ab|--2-2----------------2-2-----------------|
Eb|--0-0----------------0-0-----------------|
     . .                . 

eb|-------------------------|
Bb|-------------------------|
Gb|-------------------------|
Db|----------------4-2-1-2--|
Ab|-/4-2-1-2-1h2p1----------|
Eb|-------------------------|

eb|-----------------------------------------|
Bb|-----------------------------------------|
Gb|-----------------------------------------|
Db|------0h2p0-4p2p1p0------0h2p0-4p2p1p0---|
Ab|--2-2----------------2-2-----------------|
Eb|--0-0----------------0-0-----------------|
     . .                . 

eb|----------------------------------------|
Bb|----------------------------------------|
Gb|--------1--------4-2-1h2p1---1----------|
Db|----1-2---4-2--------------4---4-2-1-2--|
Ab|--4-----------4-------------------------|
Eb|----------------------------------------|
     . . . . . . .

eb|-----------------------------------------|
Bb|-----------------------------------------|
Gb|-----------------------------------------|
Db|------0h2p0-4p2p1p0------0h2p0-4p2p1p0---|
Ab|--2-2----------------2-2-----------------|
Eb|--0-0----------------0-0-----------------|
     . .                . 

eb|-------------------------|
Bb|-------------------------|
Gb|-------------------------|
Db|----------------4-2-1-2--|
Ab|-/4-2-1-2-1h2p1----------|
Eb|-------------------------|


eb|-----------------------------------------|
Bb|-----------------------------------------|
Gb|-----------------------------------------|
Db|------0h2p0-4p2p1p0------0h2p0-4p2p1p0---|
Ab|--2-2----------------2-2-----------------|
Eb|--0-0----------------0-0-----------------|
     . .                . 

eb|----------------------------|
Bb|----------------------------|
Gb|--------1-------------------|
Db|----1-2---4-2---------------|
Ab|--4-----------4----6----2---|
Eb|-------------------4----0---|
     . . . . . . .

	1st Verse riff
eb|----------------------------------|
Bb|----------------------------------|
Gb||-----1-2-1-----------------------|
Db||---2-------4-2-------------------|
Ab|--4--------------2-2--22--22--22--|
Eb|-----------------0-0--00--00--00--|
                      .  ..  ..  ..

eb|-------------------------------|
Bb|-------------------------------|
Gb|------1-2-1-----4-2-1-2-1---1-||
Db|----2-------4-2-----------4---||  6x
Ab|--4----------------------------|
Eb|-------------------------------|

	2ed Verse riff
eb|---------------------------------|
Bb|---------------------------------|
Gb||---------6/8--------------------|
Db||------9-------------------------|
Ab|--2-2--7--4/6-------9-7---7-6----|
Eb|--0-0-----------7-------9-----9--|


eb|---------------------------------|
Bb|---------------------------------|
Gb|----------6/8--------------------|
Db|-------9------------------7-5-4--|
Ab|--2-2--7--4/6-------7-5-4--------|
Eb|--0-0-----------5----------------|


eb|---------------------------------|
Bb|---------------------------------|
Gb|----------6/8--------------------|
Db|-------9-------------------------|
Ab|--2-2--7--4/6-------9-7---7-6----|
Eb|--0-0-----------7-------9-----9--|


eb|----------------------|
Bb|----------6/8---------|
Gb|---------------------||
Db|-------9-------------||   2x
Ab|--2-2--7--4/6---7--9--|
Eb|--0-0-----------5--7--|


	Guitar 1
eb|----------------------------------------|
Bb|----------------------------------------|
Gb|----------------------------------------|
Db|----------------------------------------|
Ab|--7-7-7-7-7-7-7-7-7-7-7-7-7-7-7-7---2---|
Eb|--5-5-5-5-5-5-5-5-5-5-5-5-5-5-5-5---0---|


eb|-------------------------------------------|
Bb|-------------------------------------------|
Gb|-------------------------------------------|
Db|-------------------------------------------|
Ab|--7-7-7-7-7-7-7-7-7-7-7-7-7-7-7-7---2---9--|
Eb|--5-5-5-5-5-5-5-5-5-5-5-5-5-5-5-5---0---7--|

	Guitar 2
eb|---------------------------------------------|
Bb|---------------------------------------------|
Gb|--9-9-9-9-9-9-9-9-8-8-8-8-6-6-6-6--6-8-6-4-6-|
Db|---------------------------------------------|
Ab|--7-7-7-7-7-7-7-7-6-6-6-6-4-4-4-4--4-6-4-2-4-|
Eb|---------------------------------------------|

eb|--------------------------------------------|
Bb|--------------------------------------------|
Gb|--9-9-9-9-9-9-9-9-8-8-8-8-6-6-6-6-11-9-8-9--|
Dd|--------------------------------------------|
Ab|--7-7-7-7-7-7-7-7-6-6-6-6-4-4-4-4--9-7-6-7--|
Eb|--------------------------------------------|

--------------------------------------------------


eb|-----------------------------------------|
Bb|-----------------------------------------|
Gb|-----------------------------------------|
Db|------0h2p0-4p2p1p0------0h2p0-4p2p1p0---|
Ab|--2-2----------------2-2-----------------|
Eb|--0-0----------------0-0-----------------|
     . .                . 

eb|-------------------------|
Bb|-------------------------|
Gb|-------------------------|
Db|----------------4-2-1-2--|
Ab|-/4-2-1-2-1h2p1----------|
Eb|-------------------------|

eb|-----------------------------------------|
Bb|-----------------------------------------|
Gb|-----------------------------------------|
Db|------0h2p0-4p2p1p0------0h2p0-4p2p1p0---|
Ab|--2-2----------------2-2-----------------|
Eb|--0-0----------------0-0-----------------|
     . .                . 

eb|----------------------------------------|
Bb|----------------------------------------|
Gb|--------1--------4-2-1h2p1---1----------|
Db|----1-2---4-2--------------4---4-2-1-2--|
Ab|--4-----------4-------------------------|
Eb|----------------------------------------|
     . . . . . . .

eb|-----------------------------------------|
Bb|-----------------------------------------|
Gb|-----------------------------------------|
Db|------0h2p0-4p2p1p0------0h2p0-4p2p1p0---|
Ab|--2-2----------------2-2-----------------|
Eb|--0-0----------------0-0-----------------|
     . .                . 

eb|-------------------------|
Bb|-------------------------|
Gb|-------------------------|
Db|----------------4-2-1-2--|
Ab|-/4-2-1-2-1h2p1----------|
Eb|-------------------------|


eb|-----------------------------------------|
Bb|-----------------------------------------|
Gb|-----------------------------------------|
Db|------0h2p0-4p2p1p0------0h2p0-4p2p1p0---|
Ab|--2-2----------------2-2-----------------|
Eb|--0-0----------------0-0-----------------|
     . .                . 

eb|----------------------------|
Bb|----------------------------|
Gb|--------1-------------------|
Db|----1-2---4-2---------------|
Ab|--4-----------4----6----2---|
Eb|-------------------4----0---|
     . . . . . . .

Breakdown:
        Rythem
eb|-----------------------------------|
Bb|-----------------------------------|
Gb|-----------------------------------|
Db|-----------------------------------|
Ab|--222-2-2-222-222---222-2-222-222--|
Eb|--000-0-0-000-000---000-0-000-000--|
     ... . . ... ...   ... . ... ...

        Lead
eb|----------------------------------|
Bb|----------------------------------|
Gb|------1-2-1-----4-1-2---1---------|
Db|----2-------2---------4---2-4-1-2-|
Ab|--4-----------4-------------------|
Eb|----------------------------------|

Repeat 1st half of 2ed verse riff
Repeat Chours

Outro:
        Rythem
eb|-------------------------|----------|
Bb|-------------------------|----------|
Gb|-------------------------|----------|
Db|-------------------------|----------|
Ab|--7-----2-----7-----2----|--9-9-9-9-|
Eb|--5-----0-----5-----0----|--7-7-7-7-|

	Lead
eb|------4-5-4-----7-4-5---4---------|--7-9-7-5-7-5-4-5-4--|
Bb|----5-------5---------7---5-7-4-5-|---------------------|
Gb|--6-----------6-------------------|---------------------|
Db|----------------------------------|---------------------|
Ab|----------------------------------|---------------------|
Eb|----------------------------------|---------------------|





Comments


Popular As I Lay Dying tabs & chords
Forever 2 Bass Tabs
94 Hours (Solo) Tabs
94 Hours 4 Tabs
Anodyne Sea Tabs
Collision 1 Tabs
Control Is Dead Tabs
Losing Sight 3 Tabs
Repeating Yesterday 5 Tabs
Truth Of My Perception 1 Tabs
Within Destruction Tabs


Song lyrics



↑ Back to top | Tablatures and chords are parodies/interpretations of the original songs. You may use it for private study, scholarship, research or language learning purposes only
© 2014 AZChords.com Contact us | Privacy policy | DMCA | Add/correct tabs | Request tabs | Top 50 tabs