>
 >
Elegy 1

Elegy 1 Guitar Tabs

As I Lay Dying - Elegy 1 chords, tabs, tablatures, lyrics

Guitar lessons | Add/correct | Request | Top 50 tabs Artists:  A B C D E F G H I J K L M N O P Q R S T U V W X Y Z 0-9

Elegy 1 Guitar Tabs – As I Lay Dying

CD, Sheet music, Poster

Do you like Elegy 1? Share with your friends now
Bass TabsTabsTabs v2Tabs v3Tabs v4
As I Lay Dying  Elegy


h = hammer on
p = pull off
< = slide
~ = let ring
* = strike a number of times
. = palm mute

Part A 
B|-------------------------------------------------------------
A|-------------------------------------------------------------
F|-------------------------------------------------------------
C|-----------------0---------------8<10-8-7-8-7h8p7------------
G|-..--7h8p7h9p8p7-0---7h8p7h9p8p7------------------10-8-7-8~--
C|-00--------------0-------------------------------------------


B|------------------------------------------------------------------
A|------------------------------------------------------------------
F|-------------------------------------.-.----.------.--.-.---------
C|-----------------0----------------.-.7-8-.--7-.-.--10-8-7.-.--.-.-
G|-..--7h8p7h9p8p7-0---7h8p7h9p8p7--5-8----10---8-10-------8-10-7-8-
C|-00--------------0------------------------------------------------
   
B|-------------------------------------------------------------
A|-------------------------------------------------------------
F|-------------------------------------------------------------
C|-----------------0---------------8<10-8-7-8-7h8p7------------
G|-..--7h8p7h9p8p7-0---7h8p7h9p8p7------------------10-8-7-8~--
C|-00--------------0-------------------------------------------

B|----------------------------------------------------------------
A|----------------------------------------------------------------
F|-------------------------------------.-.----.--------.---.------
C|-----------------0----------------.-.7-8-.--7-.-.----77~-33~----
G|-..--7h8p7h9p8p7-0---7h8p7h9p8p7--5-8----10--8-10---77~-33~----
C|-00--------------0-----------------------------------77~-33~----

Part B 6x
B|---------------------------------------------------------------
A|---------------------------------------------------------------
F|---------------------------------------------------------------
C|-----7-8-7-5-7-5-----------7-8-7-5-7-10-8-7-8-7-5-7------------
G|---5-------------5-.....-5-------------------------------------
C|-------------------00000---------------------------------------

Part C 2x 
B|----------------------------------------------------------------
A|----------------------------------------------------------------
F|----------------------------------------------------------------
C|----------------------------------------------7-10-8-7----------
G|-..-7-7h8-5~--10-8-7-8-7-5--..-7-7h8-5~--10-8-------------------
C|-00-------------------------00----------------------------cont--




B|----------------------------------------------------
A|----------------------------------------------------
F|----------------------------------------------------
C|-----------------------------------------8-8-10-10--
G|-..-7-7h8-5~--10-8-7-8-7-5--..-7-7h8-----8-8-10-10--
C|-00-------------------------00-----------8-8-10-10--

Part D
2x Guitar 1
B|-----------------------------------
A|-----------------------------------
F|-----------------------------------
C|-8888888888-0~--8888888888-0~-10~--
G|-8888888888-0~--8888888888-0~-10~--
C|-8888888888-0~--8888888888-0~-10~--

Guitar 2
B|-------------------------------------------
A|-------------------------------------------
F|-10*-9*--7-10-9-7-9----10*-9*-12--10-9-10~-
C|-------------------------------------------
G|-8*--7*--5-8--7-5-7----8*--7*-10--8--7-8~--
C|-------------------------------------------

Part A again

Part E
Guitar 2
9x 
B|--------------
A|--------------
F|-.... ......--
C|-0000-000000--
G|-0000-000000--
C|-0000-000000--

 
Guitar 2
4x
B|------------------------------------
A|------------------------------------
F|------------------------------------
C|---7-8-7-5-7---7-10-8-7-------------
G|-5-----------8---------10-8-10-7-8--
C|------------------------------------

Part C again 1x

Part D again 

Part F 
Guitar 1
3x then cont. to 4th time
B|------------------------------------------------
A|--10-11-10-8-10---10-13-11-10------------------- 
F|-7-------------10-------------12-10-12-9-10-----  
C|------------------------------------------------
G|------------------------------------------------
C|------------------------------------------------


4th time
B|---------------------10-------------------------
A|--10-11-10-8-10----10---13-11-10----------------
F|-7-------------10----------------12-10-12-9-10--
C|------------------------------------------------
G|------------------------------------------------
C|-----------------------repeat until end of song-

Guitar 2
4x
B|---------
A|---------
F|---------
C|-8~--0~--
G|-8~--0~--
C|-8~--0~--

4x
B|---------
A|---------
F|---------
C|-8*--0*--
G|-8*--0*--
C|-8*--0*--

Then at 03:42 Guitar 2 plays Part D





Comments


Popular As I Lay Dying tabs & chords
An Ocean Between Us Bass Tabs
Repeating Yesterday Bass Tabs
Comfort Betrays 1 Tabs
Confined 4 Tabs
Elegy 3 Tabs
Forever 2 Tabs
Reflection 1 Tabs
This Is Who We Are Tabs
Through Struggle 2 Tabs
Voices That Betray Me Tabs


Song lyrics



↑ Back to top | Tablatures and chords are parodies/interpretations of the original songs. You may use it for private study, scholarship, research or language learning purposes only
© 2014 AZChords.com Contact us | Privacy policy | DMCA | Add/correct tabs | Request tabs | Top 50 tabs