>
 >
Elegy

Elegy Guitar Tabs

As I Lay Dying - Elegy chords, tabs, tablatures, lyrics

Guitar lessons | Add/correct | Request | Top 50 tabs Artists:  A B C D E F G H I J K L M N O P Q R S T U V W X Y Z 0-9

Elegy Guitar Tabs – As I Lay Dying

CD, Sheet music, Poster

Do you like Elegy? Share with your friends now
Bass TabsTabsTabs v2Tabs v3Tabs v4
(0) = optional filler note (listen carefully to song, this is how they play it) 
h = hammer on
p = pull off
/ = slide
~ = let ring
. = palm mute

Guitar 1:
Part A 
B|---------------------------------------------------------------
A|---------------------------------------------------------------
F|---------------------------------------------------------------
C|------------------0----------------8/10-8-7-8-7h8p7------------
G|-00--7h8p7h10p8p7-0---7h8p7h10p8p7------------------10-8-7-8~--
C|-00---------------0--------------------------------------------
   ..

B|-----------------------------------------------------------------------------
A|-----------------------------------------------------------------------------
F|-----------------------------------------------------------------------------
C|------------------0-------------------------7-8-5-7---10-8-7----7------------
G|-00--7h8p7h10p8p7-0---7h8p7h10p8p7--(0)-5-8---------8--------10---8-10-7-8---
C|-00---------------0----------------------------------------------------------
   ..                                  .  . .

B|---------------------------------------------------------------
A|---------------------------------------------------------------
F|---------------------------------------------------------------
C|------------------0----------------8/10-8-7-8-7h8p7------------
G|-00--7h8p7h10p8p7-0---7h8p7h10p8p7------------------10-8-7-8~--
C|-00---------------0--------------------------------------------
   .. 

B|---------------------------------------------------------------------
A|---------------------------------------------------------------------
F|---------------------------------------------------------------------
C|------------------0-------------------------7-8-5-7-------77~-33~----
G|-00--7h8p7h10p8p7-0---7h8p7h10p8p7--(0)-5-8---------8-5---77~-33~----
C|-00---------------0---------------------------------------77~-33~----
   ..                                  .  . .
Part B 6x
B|----------------------------------------------------------------
A|----------------------------------------------------------------
F|----------------------------------------------------------------
C|------7-8-5-7----0--------------------7-8-5-7---10-8-7-8-7-5-7--
G|--5-8---------8--0----------------5-8---------8-----------------
C|-----------------0-0-000-000-000--------------------------------
                     . ... ... ...
Part C  (all of part C 2x) 
B|--------------------------------------------------------------
A|--------------------------------------------------------------
F|-----------------------------------------------5-3-2----------
C|--------------5-3-2-3-2------------------5-3-2----------------
G|-00-5-5h8-3~------------5~--00-5-5h8-1~-----------------------
C|-00--0----------------------00--0-----------------------cont--
   ..  .                      ..  .

B|------------------------------------------------------------
A|------------------------------------------------------------
F|------------------------------------------------------------
C|--------------5-3-2-3-2-----------------8-8-10-10-----------
G|-00-5-5h8-3~------------5~--00-5-5h8----8-8-10-10-----------
C|-00--0----------------------00--0-------8-8-10-10-----------
   ..  .                      ..  .
Part D
2x Guitar 1
B|-------------------------------------------------------
A|-------------------------------------------------------
F|-------------------------------------------------------
C|-8888888888888888-0~ 0-0~-8888888888888888-0~-10-10~---
G|-8888888888888888-0~-0-0~-8888888888888888-0~-10-10~---
C|-8888888888888888-0~-0-0~-8888888888888888-0~-10-10~---

Part A again

Part E 5x 
B|----------------------------------
A|----------------------------------
F|----------------------------------
C|-000-00-000-000---000-0-000-000---
G|-000-00-000-000---000-0-000-000---
C|-000-00-000-000---000-0-000-000---
   ... .. ... ...   ... . ... ... 

4x (while guitar 2 is still playing the top staff)
B|---------------------------------------
A|---------------------------------------
F|---------------------------------------
C|-----7-8-5-7---10-8-7----7-------------
G|-5-8---------8--------10---8-10-7-8----
C|---------------------------------------

Part C again 1x

Part D again 

Part F 
3x then cont. to 4th time
B|----------------------------------------------------
A|----------------------------------------------------
F|--------14-15-12-14----17-15-14----14---------------
C|--12-15-------------15----------17----15-17-14-15---
G|----------------------------------------------------
C|----------------------------------------------------


4th time
B|-------------------------------------------------------
A|--------------------------15---------------------------
F|--------14-15-12-14----17----17-15-14-15-14-12-14------
C|--12-15-------------15---------------------------------
G|-------------------------------------------------------
C|-----------------------repeat ALL of F until fade out--

Guitar 2 will be added in sometime later this week





Comments


Popular As I Lay Dying tabs & chords
Behind Me Lies Another Fallen Soldier Tabs
Condemned Intro Tabs
Condemned Intro 1 Tabs
Forced To Die Tabs
I Never Wanted Tabs
Meaning In Tragedy 2 Tabs
Parallels Tabs
Separation 1 Tabs
Truth Of My Perception 1 Tabs
Upside Down Kingdom Intro 2 Tabs


Song lyrics



↑ Back to top | Tablatures and chords are parodies/interpretations of the original songs. You may use it for private study, scholarship, research or language learning purposes only
© 2014 AZChords.com Contact us | Privacy policy | DMCA | Add/correct tabs | Request tabs | Top 50 tabs