» » »

As I Lay Dying, Control Is Dead Tabs (ver.1)

Artists:  A B C D E F G H I J K L M N O P Q R S T U V W X Y Z # 

Control Is Dead Tabs (ver.1)

As I Lay Dying Tabs
Rating:
0/5 (0 votes)
Control Is Dead lessons Tabs too difficult? Try these video lessons and learn fast
                Drop C-

 Intro
||--------------------------------------------------------------------|
||--------------------------------------------------------------------|
||-------7---------9----------------------10---------12---------------|
||---------7---------7-----------------------7----------7-------5-7-8-|
||--------------------------------------------------------------------|
||-0-0-0-----0-0-0-----0-0-00000000-0-0-0------0-0-0------0-0-0-------|
   . . .     . . .     . . ........ . . .      . . .      . . .
||--------------------------------------------------------------------|
||--------------------------------------------------------------------|
||-------7---------9---------10--------12-----------------------------|
||---------7---------7---------7----------7------5-7-8----------------|
||--------------------------------------------------------------------|
||-000-0-----0-000-----0-000-----0-000-------0-0----------------------|
   ... .     . ...     . ...     . ...       . .
||--------------------------------------------------------------------|
||--------------------------------------------------------------------|
||-------7---------9---------10--------12-----------------------------|
||---------7---------7---------7----------7------5-8-7----------------|
||--------------------------------------------------------------------|
||-000-0-----0-000-----0-000-----0-000-------0-0----------------------|
   ... .     . ...     . ...     . ...       . .

  Vers  I
||--------------------------------------------------------------------|
||--------------------------------------------------------------------|
||--------------------------------------------------------------------|
||--------7---------8---------------------10---------8----------------|
||----------5---------5----------------------8---------5--------------|
||-000000-----00000-----00000-5-7-8-00000------00000-----00000-5-8-7--| x2
   ......     .....     .....       .....      .....     .....
||--------------------------------------------------------------------|
||--------------------------------------------------------------------|
||--------------------------------------------------------------------|
||--------7---------8--------------------10---------8-----------------|
||----------5---------5---------------------8---------5---------------|
||-000000-----00000-----0000000000000000------00000-----00000-5-7-8---|
   ......     .....     ................      .....     .....
||--------------------------------------------------------------------|
||--------------------------------------------------------------------|
||--------------------------------------------------------------------|
||--------7---------8--------------------10---------8-----------------|
||----------5---------5---------------------8---------5---------------|
||-000000-----00000-----0000000000000000------00000-----00000-5-8-7---|
   ......     .....     ................      .....     .....

  Repeat Intro

  Vers II
||--------------------------------------------------------------------|
||--------------------------------------------------------------------|
||--------------------------------------------------------------------|
||--------------------------------------------------------------8-7---|
||-000-0-------0-0-000-0-000-0-000-000-0-------0-0-6-5---10-9---------|
||-000-0-6-3-0-0-0-000-0-000-0-000-000-0-6-3-0-0-0-----0------0-------|
   ... .       . . ... . ... . ... ... .       . .     .      .
||--------------------------------------------------------------------|
||--------------------------------------------------------------------|
||--------------------------------------------------------------------|
||-------------------------------------------------8-7----------------|
||-000-0-------0-0-000-0-000-0-000-000-0-------0-0-------12-9---9-6---|
||-000-0-6-3-0-0-0-000-0-000-0-000-000-0-6-3-0-0-0-----0------0-------| x3
   ... .       . . ... . ... . ... ... .       . .     .      .
||--------------------------------------------------------------------|
||--------------------------------------------------------------------|
||--------------------------------------------------------------------|
||--------------------------------------------------------------8-7---|
||-000-0-------0-0-0-0-0-0-0-0-0-0-000-0-------0-0-6-5---10-9---------|
||-000-0-6-3-0-0-0-0-0-0-0-0-0-0-0-000-0-6-3-0-0-0-----0------0-------|
   ... .       . . . . . . . . . . ... .       . .     .      .
||--------------------------------------------------------------------|
||--------------------------------------------------------------------|
||--------------------------------------------------------------------|
||-------------------------------------------------8-7----------------|
||-000-0-------0-0-0-0-0-0-0-0-0-0-000-0-------0-0-------12-9---6-----|
||-000-0-6-3-0-0-0-0-0-0-0-0-0-0-0-000-0-6-3-0-0-0-----0------0-------|
   ... .       . . . . . . . . . . ... .       . .     .      .

  Repeat Intro

  Vers III
||--------------------------------------------------------------------|
||--------------------------------------------------------------------|
||--------------------------------------------------------------------|
||-----7---------7-----7---------7-----7---------7-----7---------7----|
||---------6-3-------------6-3-------------6-3-------------6-3--------|
||-0-0---0-----0---0-0---0-----0---0-0---0-----0---0-0---0-----0------|
   . .   .     .   . .   .     .   . .   .     .   . .   .     .
||--------------------------------------------------------------------|
||--------------------------------------------------------------------|
||--------------------------------------------------------------------|
||--------------------------------------------------------------------|
||-----8---------8-----8---------8-----8---------8-----8---------8----|
||-0-0---0-9-6-0---0-0---0-9-6-0---0-0---0-9-6-0---0-0---0-9-6-0------|
   . .   .     .   . .   .     .   . .   .     .   . .   .     .

  Repeat Intro

Thanks, rate please!
            

comments powered by Disqus
↑ Back to top | As I Lay Dying Tabs for Control Is Dead. Lyrics for acoustic guitar and electric guitar. Tablatures and chords are parodies/interpretations of the original songs. You may use it for private study, scholarship, research or language learning purposes only