» » »

As I Lay Dying, Confined Bass tabs (ver.1)

Artists:  A B C D E F G H I J K L M N O P Q R S T U V W X Y Z # 

Confined Bass tabs (ver.1)

As I Lay Dying Tabs
 Rating:
4/5 (4 votes)
Confined lessons Tabs too difficult? Try these video lessons and learn fast
1
                Confined---As I Lay Dying


Tuning: Drop C (C, G, C, F)

| /  slide up
| \  slide down
| h  hammer-on
| p  pull-off
| ~  vibrato
| +  harmonic
| x  Mute note

Ok, my first tab, and im only 14, so please excuse any errors that may be made
(this song is fast, practice!!!)

Intro (follow bass drum beats for the triplets)
(Intro of song has little noisey thing with drums, rest during this)
F|---------------------------------------------------------------------------|
C|---------------------------------------------------------------------------|
G|---------------------------------------------------------------------------|
C|---000---000---000---000---000---000---000---000---000---000---000---000---|

F|---------------------------------------------------------------------------|
C|---------------------------------------------------------------------------|
G|---------------------------------------------------------------------------|
C|-(just keep alternate picking open with the beat)-0-----------------------|

Verse
(this part do twice, it follows guitars)
F|---------------------------------------------------------------------------|
C|---------------------------------------------------------------------------|
G|-------5-7--------8-10-----8-7-3-5--------5-7-------8-7---8-7-3-5----------|
C|---00-------000---------0------------00---------000-----0------------------|
(bass breaks off to this, again, follow the bass drum, repeat as necessary)
F|---------------------------------------------------------------------------|
C|---------------------------------------------------------------------------|
G|---------------------------------------------------------------------------|
C|----00----000---------00000000000000---------------------------------------|

Verse Part 2/pre chorus?
*NOTE*-the pull offs for this part are just letting go, dont pull and play a note
(this part twice)
F|---------------------------------------------------------------------------|
C|---------------------------------------------------------------------------|
G|------------------8-7---------10-8-----------------------------------------|
C|---0-0-000-000---------0-000--------0-000-8p-7p-5p-7-5\3-------------------|
(change to this, play it twice, follow bass drum again :)
F|---------------------------------------------------------------------------|
C|---------------------------------------------------------------------------|
G|----------------------8-7--------------------------------------------------|
C|-----00-000-000-000--------00-000-000-000-8p-7p-5p-7-5\3-------------------|

Chorus

F|---------------------------------------------------------------------------|
C|---------------------------------------------------------------------------|
G|---------------------------------------------------------------------------|
C|-8-8-8-8-8-8-8-8-8-5-5-5-5-5-5-5-5-0-0-0-0-0-0-0-0-0-0-0-0-----------------|

F|---------------------------------------------------------------------------|
C|---------------------------------------------------------------------------|
G|---------------------------------------------------------------------------|
C|-3-3-3-3-3-3-3-3-5-5-5-5-5-5-5-5-------------------------------------------|
(rapid alternate picking along with bass drum again =P)
F|---------------------------------------------------------------------------|
C|---------------------------------------------------------------------------|
G|---------------------------------------------------------------------------|
C|-8888888888888888-5555555555555555--000000000000000000000000---------------|

F|---------------------------------------------------------------------------|
C|---------------------------------------------------------------------------|
G|---------------------------------------------------------------------------|
C|-3333333333333333-5555555555555555--000000000000000000000000---------------|
(Follow drum hits for the opens)
F|---------------------------------------------------------------------------|
C|---------------------------------------------------------------------------|
G|---------------------------------------------------------------------------|
C|--8----5----00000000000000000000000000000000000000000000000000000000000000-|

Outro

F|---------------------------------------------------------------------------|
C|---------------------------------------------------------------------------|
G|---------------------------------------------------------------------------|
C|-Open hits, follow the bass drum again, rhythm is hard to write-----------|
(at the end of the rhythm, there is this part again, its thrown in there, listen for it)
F|---------------------------------------------------------------------------|
C|---------------------------------------------------------------------------|
G|---------------------------------------------------------------------------|
C|--8p-7p-5p-7-5\3---------------------------------------------------------------------|

Okay, now that we have that, heres the order for the song
Intro
Verse
Verse 2
Chorus
Verse
Outro
            
Submit corrections

comments powered by Disqus
↑ Back to top | As I Lay Dying Bass for Confined. Lyrics for acoustic guitar and electric guitar. 1 Tablatures and chords are parodies/interpretations of the original songs. You may use it for private study, scholarship, research or language learning purposes only