» » »

Condemned Tabs (ver.1)

Artists:  A B C D E F G H I J K L M N O P Q R S T U V W X Y Z # 

Condemned Tabs (ver.1)

As I Lay Dying
Rating:
0/5 (0 votes)

Hard to play? Try these video lessons and learn fast.
                (Intro)
This is my first tab, let me know if anything is wrong.  Ill try and get the rest of the 
up soon.

D#|--------------------------------------------------|
A#|--------------------------------------------------|
F#|--------------------------------------------------|
C#|-----------------------------------------33333----|
G#|-----5-5----6--------5-----------6-3-5---33333----|
C#|--0-0----6-3-6-3-5-2---0-0-0-0-0---------33333-3*-|
PM|  . .    . . . . . .   . . . . .

D#|---------------------------------------------------|
A#|---------------------------------------------------|
F#|---------------------------------------------------|
C#|------------------------------------------33333----|
G#|-----5-5----6p5--------5-----------6-3-5--33333----|
C#|--0-0----6-3---6-3-5-2---0-0-0-0-0--------33333-3*-|
PM|  . .    . .   . . . .   . . . . .

D#|-------|
A#|-------|
F#|-------|
C#|--0~~~~|
G#|--0~~~~|
C#|--0~~~~|


*=pinch harmonics
~~=let note ring
.=palm mute
            
Hard to play? Try these video lessons and learn fast. | Correct




comments powered by Disqus
↑ Back to top | Tablatures and chords are parodies/interpretations of the original songs. You may use it for private study, scholarship, research or language learning purposes only