>
 >
Cauterize

Cauterize Guitar Tabs

As I Lay Dying - Cauterize chords, tabs, tablatures, lyrics

Guitar lessons | Add/correct | Request | Top 50 tabs Artists:  A B C D E F G H I J K L M N O P Q R S T U V W X Y Z 0-9

Cauterize Guitar Tabs – As I Lay Dying

CD, Sheet music, Poster

Do you like Cauterize? Share with your friends now
Tabs
-------------------------------------------------------------------------------
-------------------------------------------------------------------------------

Tuning: Drop C

Listen to figure out how many times each riff is played
e|---------------------------------------------------------------------------|
B|---------------------------------------------------------------------------|
G|---------------------------------------------------------------------------|
D|---------------------------------------------------------------------------|
A|--------5---------------5----------------8-----7---------------------------|
E|--0-0-0---0-0-0-8-0-0-0---8p7p5h7--0-0-0---7-8---000-000-8p7p5h7-----------|
PM  . . .   . . .   . . .            . . .         ... ...

e|---------------------------------------------------------------------------|
B|---------------------------------------------------------------------------|
G|---------------------------------------------------------------------------|
D|---------------------------------------------------------------------------|
A|--5p0-------------------------8p0-7p0-------------------10---8---7h8-------|
E|------0-0-0-0-7h8p7p0-0-0-0-0---------0-0-0-0-7h8h10-10----7---7-----------|
PM      .   . .         .   . .         .   . .        .     .   .

preverse (only before first chorus though)
e|---------------------------------------------------------------------------|
B|---------------------------------------------------------------------------|
G|--7------10-----5-----9----------------------------------------------------|
D|--x-x16--x-x16--x-x16-x-x16------------------------------------------------|
A|--5------8------3-----7----------------------------------------------------|
E|---------------------------------------------------------------------------|
PM

chorus
e|-----------------------------------------------------------------------------|
B|-----------------------------------------------------------------------------|
G|--9-----10-----9-----10-----10p9--------9-----10-----9-----10-----10p9-------|
D|----0-0----0-0---0-0----0-0------12p10----0-0----0-0---0-0----0-0------12p10-|
A|-----------------------------------------------------------------------------|
E|-----------------------------------------------------------------------------|
PM    . .    . .   . .    . .               . .    . .   . .    . . 

e|------------------------------------------------------------------------------------|
B|------------------------------------------------------------------------------------|
G|--9-----10-----9-----10-----10p9--------9-------10-------9----10p9-------12p10p9----|
D|----8-8----8-8---8-8----8-8------12p10----10-10----10-10---10------12p10---------12-|
A|------------------------------------------------------------------------------------|
E|------------------------------------------------------------------------------------|
PM    . .    . .   . .    . .               .  .     .  .    .        

havent figured out solo yet, only first part really and he plays it twice
after the opening whammy stuff
e|---------------------------------------------------------------------------|
B|---------------------------------------------------------------------------|
G|--10-9----9---------------------------------9------------------------------|
D|-------12---12-10-12-10---------------10-12--------------------------------|
A|------------------------12-10-8-10-12--------------------------------------|
E|---------------------------------------------------------------------------|
PM


************************************

| /   slide up
| \   slide down
| h   hammer-on
| p   pull-off
| ~   vibrato
| +   harmonic
| x   Mute note
| b   Bend
| pb  Pre-bend
| br  Bend release
| pbr Pre-bend release
| brb Bend release bend
| PM  Palm Mute
************************************





Comments


Popular As I Lay Dying tabs & chords
A Thousand Steps Bass Tabs
Elegy Bass Tabs
Beginning 2 Tabs
Distance Is Darkness Tabs
Falling Upon Deaf Ears 2 Tabs
Forsaken Tabs
Nothing Left 1 Tabs
Repeating Yesterday 3 Tabs
Repeating Yesterday 4 Tabs
The Sound Of Truth 2 Tabs


Song lyrics



↑ Back to top | Tablatures and chords are parodies/interpretations of the original songs. You may use it for private study, scholarship, research or language learning purposes only
© 2014 AZChords.com Contact us | Privacy policy | DMCA | Add/correct tabs | Request tabs | Top 50 tabs