>
 >
Bury Us All

Bury Us All Guitar Tabs

As I Lay Dying - Bury Us All chords, tabs, tablatures, lyrics

Guitar lessons | Add/correct | Request | Top 50 tabs Artists:  A B C D E F G H I J K L M N O P Q R S T U V W X Y Z 0-9

Bury Us All Guitar Tabs – As I Lay Dying

CD, Sheet music, Poster

Do you like Bury Us All? Share with your friends now
Bass TabsTabs
This is my first tab attempt but i think i have got the song spot on apart from the solo 
ill post that up when i bother working it out lol

INRO

both guitars
D---------------------------------------------------------------------|
A---------------------------------------------------------------------|
F--------------------------------------------------------------   X 4-|
C---------------------------------------------------------------------|
G---------------------------------------------------------------------|
C---7-0-0-0-0-7-8-0-7-0-0-0-0-7-8-0-7-0-0-0-0-7-8-0-7-0-7-8-0-6-------|


Then an open is played till the third bar of the snare roll

both guitars
D--------------------------------------------------------------|
A--------------------------------------------------------------|
F--------------------------------------------------------------|
C-0------------------------------------------------------------|
G-0------------------------------------------------------------|
C-0------------------------------------------5-7-0-7-8-0-8-10--|


Verse

guitar 1
D--------------------------------------------------------------------|
A--------------------------------------------------------------------|
F--------------------------------------------------------------------|
C--------------------------------------------------------------------|
G-5---------8-7----5---------7-8----5---------8-7----5---7-8---10----|
C---0-0-0-0-----10---0-0-0-0-----10---0-0-0-0-----10---0-----0-------|

D---------------------------------------------------------------------|
A---------------------------------------------------------------------|
F---------------------------------------------------------------------|
C---------------------------------------------------------------------|
G-5---------8-7----5---------7-8----5---------8-7---------------------|
C---0-0-0-0-----10---0-0-0-0-----10---0-0-0-0-----10-5-7-0-7-8-0-8-10-|

This is repeated 2 times but on the second bar there is a harmony part where its 
the same apart from the end part which is....

guitar 2
D--------------------------------------------------------------------|
A--------------------------------------------------------------------|
F--------------------------------------------------------------------|
C--------------------------------------------------------------------|
G-5---------8-7----5---------7-8----5---------8-7----8---10-12--13---|
C---0-0-0-0-----10---0-0-0-0-----10---0-0-0-0-----10---0------0------|

Riff before chorus

both guitars
D--------------------------------------------------------------------|
A--------------------------------------------------------------------|
F--------------------------------------------------------------------| x 2
C--------------------------------------------------------------------|
G--------------------------------------------------------------------|
C-0-0-0-0-0-0-0-0-0-0-0-0-0-0-0-0-0-0-0-0-0-0-0-0-0-5-8-3------------|

It then goes on to

Guitar 1
D--------------------------------------------------------------------|
A--------------------------------------------------------------------|
F-----------------7-0-9-10------------------------7-0-9-10-----------| x 2
C--------------------------------------------------------------------|
G--------------------------------------------------------------------|
C-0-0-0-0-0-0-0-0----------0-0-0-0-0-0-0-0-0-0-0-0-----------0-5-8-3-|
Guitar 2

D----------------------------------------------------------------------|
A----------------------------------------------------------------------|
F---------------------------------7-0-9-10---------------------------x-|
C----------------------------------------------------------------------|
G----------------------------------------------------------------------|
C-0-0-0-0-0-0-0-0-0-0-0-0-0-0-0-0----------0-0-0-0--0-5-8-3------------|


Chorus riff

Guitar 1
D-------------------------------------------------------------------------|
A-------------------------------------------------------------------------|
F-----------------7-0-9-10---------7-0-9-10---------7-0-9-10--------- x 2-|
C-------------------------------------------------------------------------|
G-------------------------------------------------------------------------|
C-0-0-0-0-0-0-0-0----------0-0-0-0----------0-0-0-0----------0-5-8-3------|

guitar 2
D--------------------------------------------------------------------|
A--------------------------------------------------------------------|
F-----------------10-0-5-7---------10-0-5-7---------10-0-5-7---------| x 2
C--------------------------------------------------------------------|
G--------------------------------------------------------------------|
C-0-0-0-0-0-0-0-0----------0-0-0-0----------0-0-0-0----------0-5-8-3-|


it then goes back to the verse riff but there is a harmony part which is


D--------------------------------------------------------------------------|
A--------------------------------------------------------------------------|
F--------------------------------------------------------------------------|
C--------------------------------------------------------------------------|
G-8---------12-10----8---------12-10----8---------12-10----8---10-12--13---|
C---0-0-0-0-------14---0-0-0-0-------14---0-0-0-0-------14---0------0------|

D----------------------------------------------------------------------------|
A----------------------------------------------------------------------------|
F----------------------------------------------------------------------------|
C----------------------------------------------------------------------------|
G-8---------12-10----8---------12-10----8---------12-10----------------------|
C---0-0-0-0-------14---0-0-0-0-------14---0-0-0-0-------14--5-7-0-7-8-0-8-10-|

it then goes back to the intro riff x 4

Backing to solo

D------------------------------------------------------------------------|
A------------------------------------------------------------------------|
F------------------------------------------------------------------------|
C------------------------------------------------------------------------|  x2
G------------------------------------------------------------------------|
C-0000000000000000000000000000000000000000000000000-7-0-7-8-0-6----------|

it then repeats the intro riff 2 times

Then it goes back to

Riff before chorus

both guitars
D--------------------------------------------------------------------|
A--------------------------------------------------------------------|
F--------------------------------------------------------------------| x 2
C--------------------------------------------------------------------|
G--------------------------------------------------------------------|
C-0-0-0-0-0-0-0-0-0-0-0-0-0-0-0-0-0-0-0-0-0-0-0-0-0-5-8-3------------|

It then goes on to

Guitar 1
D--------------------------------------------------------------------|
A--------------------------------------------------------------------|
F-----------------7-0-9-10------------------------7-0-9-10-----------| x 2
C--------------------------------------------------------------------|
G--------------------------------------------------------------------|
C-0-0-0-0-0-0-0-0----------0-0-0-0-0-0-0-0-0-0-0-0-----------0-5-8-3-|
Guitar 2

D----------------------------------------------------------------------|
A----------------------------------------------------------------------|
F---------------------------------7-0-9-10---------------------------x-|
C----------------------------------------------------------------------|
G----------------------------------------------------------------------|
C-0-0-0-0-0-0-0-0-0-0-0-0-0-0-0-0----------0-0-0-0--0-5-8-3------------|


Chorus riff

Guitar 1
D-------------------------------------------------------------------------|
A-------------------------------------------------------------------------|
F-----------------7-0-9-10---------7-0-9-10---------7-0-9-10--------- x 2-|
C-------------------------------------------------------------------------|
G-------------------------------------------------------------------------|
C-0-0-0-0-0-0-0-0----------0-0-0-0----------0-0-0-0----------0-5-8-3------|

guitar 2
D--------------------------------------------------------------------|
A--------------------------------------------------------------------|
F-----------------10-0-5-7---------10-0-5-7---------10-0-5-7---------| x 2
C--------------------------------------------------------------------|
G--------------------------------------------------------------------|
C-0-0-0-0-0-0-0-0----------0-0-0-0----------0-0-0-0----------0-5-8-3-|

and thats the song may not be completly correct but i tried





Comments


Popular As I Lay Dying tabs & chords
Darkest Nights Bass Tabs
When This World Fades Bass Tabs
94 Hours 1 Tabs
Beginning 2 Tabs
Collision 2 Tabs
Confined 6 Tabs
Darkest Nights 3 Tabs
No Lungs To Breathe Intro Tabs
Reinvention Tabs
Through Sruggle Tabs


Song lyrics



↑ Back to top | Tablatures and chords are parodies/interpretations of the original songs. You may use it for private study, scholarship, research or language learning purposes only
© 2014 AZChords.com Contact us | Privacy policy | DMCA | Add/correct tabs | Request tabs | Top 50 tabs