>
 >
Beyond Our Suffering

Beyond Our Suffering Guitar Tabs

As I Lay Dying - Beyond Our Suffering chords, tabs, tablatures, lyrics

Guitar lessons | Add/correct | Request | Top 50 tabs Artists:  A B C D E F G H I J K L M N O P Q R S T U V W X Y Z 0-9

Beyond Our Suffering Guitar Tabs – As I Lay Dying

CD, Sheet music, Poster

Do you like Beyond Our Suffering? Share with your friends now
Tabs
        Freaking amazing and brutal song off of their new album, "The Powerless Rise". The 
are epic and the riffs are just plain and downright brutal. The only part I couldn't figure 
was the end but I PROMISE I will update it ASAP.


96% accurate


As I Lay Dying
"Beyond Our Suffering"
The Powerless Rise


INTRO---
(0:11)
|-----------------------------------------------------------------|
|-----------------------------------------------------------------|
|-----------------------------------------------------------------|
|-----------------------------------------------------------------|
|---------------1-0---0---------0---------------1-0---0-----------|
|-0-1-0-3-0-1-0-----3---0-1-3-0---0-1-0-3-0-1-0-----3---0-1-3-0-0-|

VERSE 1---
(0:15)
|-----------------------------------------------------------------|
|-----------------------------------------------------------------|
|-----------------------------------------------------------------|
|-----------------------------------------------------------------|
|---------------1-0---0---------0---------------1-0---0-----------|
|-0-1-0-3-0-1-0-----3---0-1-3-0---0-1-0-3-0-1-0-----3---0-1-3-0-0-|

(0:19)
|-----------------------------------------------------------------|
|-----------------------------------------------------------------|
|-----------------------------------------------------------------|
|-----------------------------------------------------------------|
|---------------1-0---0---------0---------------1-0---0-----------|
|-0-1-0-3-0-1-0-----3---0-1-3-0---0-1-0-3-0-1-0-----3---0-1-3-0-0-|

(0:24)
|-----------------------------------------------------------------|
|-----------------------------------------------------------------|
|-----------------------------------------------------------------|
|-----------------------------------------------------------------|
|---------------3-2---2---------2---------------3-2---2-----------|
|-2-3-2-5-2-3-2-----5---2-3-5-2---2-3-2-5-2-3-2-----5---2-3-5-2-2-|

(0:28)
|-----------------------------------------------------------------|
|-----------------------------------------------------------------|
|-----------------------------------------------------------------|
|-----------------------------------------------------------------|
|---------------1-0---0---------0---------------1-0-----0---------|
|-0-1-0-3-0-1-0-----3---0-1-3-0---0-1-0-3-0-1-0-----0-3---3-0-----|

BREAKDOWN 1---
(0:32)
|-----------------------------------------------------------------|
|-----------------------------------------------------------------|
|-----------------------------------------------------------------|
|-------------------2-----2-3-------------------------------------|
|-0-0-1-0-3-0-1-0-1-0-0-0-0-1-0-0-0-0-1-0-3-0-1-0-0h6-0-0-8p7-0-0-|
|-0-0-1-0-3-0-1-0-1---0-0-----0-0-0-0-1-0-3-0-1-0-0h6-0-0-8p7-0-0-|
  . . . . . . . .     . .     . . . . . . . . . .     . .     . .

(0:36)
|-----------------------------------------------------------------|
|-----------------------------------------------------------------|
|-----------------------------------------------------------------|
|-------------------2-----2-3-------------------------------2-----|
|-0-0-1-0-3-0-1-0-1-0-0-0-0-1-0-0-1p0-----------------1p0h1-0-1p0-|
|-0-0-1-0-3-0-1-0-1---0-0-----0-0-1p0-----------------1p0h1---1p0-|
  . . . . . . . .     . .     . .

(0:41)
|-----------------------------------------------------------------|
|-----------------------------------------------------------------|
|-----------------------------------------------------------------|
|-------------------2-----2-3-------------------------------------|
|-0-0-1-0-3-0-1-0-1-0-0-0-0-1-0-0-0-0-1-0-3-0-1-0-0h6-0-0-8p7-0-0-|
|-0-0-1-0-3-0-1-0-1---0-0-----0-0-0-0-1-0-3-0-1-0-0h6-0-0-8p7-0-0-|
  . . . . . . . .     . .     . . . . . . . . . .     . .     . .

(0:45)
|-----------------------------------------------------------------|
|-----------------------------------------------------------------|
|-----------------------------------------------------------------|
|-------------------2-----2-3-------------------------------2-----|
|-0-0-1-0-3-0-1-0-1-0-0-0-0-1-0-0-1p0-----------------1p0h1-0-1p0-|
|-0-0-1-0-3-0-1-0-1---0-0-----0-0-1p0-----------------1p0h1---1p0-|
  . . . . . . . . .   . .     . .

PREVERSE---
(0:49)
|---------------------------------|
|---------------------------------|
|---------------------------------|
|---------------------------------|
|---------------1-0---0-----0-0-0-|
|-0-1-0-3-0-1-0-----3---0-1-0-0-0-|
                            . . .

VERSE 2---
(0:51)
|-----------------------------------------------------------------|
|-----------------------------------------------------------------|
|-----------------------------------------------------------------|
|-----------------------------------------------------------------|
|---------------1-0---0---------0---------------1-0---0-----------|
|-0-1-0-3-0-1-0-----3---0-1-3-0---0-1-0-3-0-1-0-----3---0-1-3-0-0-|

(0:55)
|-----------------------------------------------------------------|
|-----------------------------------------------------------------|
|-----------------------------------------------------------------|
|-----------------------------------------------------------------|
|---------------1-0---0---------0---------------1-0---0-----------|
|-0-1-0-3-0-1-0-----3---0-1-3-0---0-1-0-3-0-1-0-----3---0-1-3-0-0-|

(0:59)
|-----------------------------------------------------------------|
|-----------------------------------------------------------------|
|-----------------------------------------------------------------|
|-----------------------------------------------------------------|
|---------------3-2---2---------2---------------4-3---3-----------|
|-2-3-2-5-2-3-2-----5---2-3-5-2---3-4-3-6-3-4-3-----6---3-4-6-4-4-|

BRIDGE---
(1:03)
|-----------------------------------------------------------------|
|-----------------------------------------------------------------|
|-----------------------------------------------------------------|
|---------------8-7---7-----7---7---------------8-7---7-----7---7-|
|-5-5-5-6-5-5-5-----8---6-6---5---5-5-5-6-5-5-5-----8---6-6---5---|
|-----------------------------------------------------------------|

(1:08)
|-----------------------------------------------------------------|
|-----------------------------------------------------------------|
|-----------------------------------------------------------------|
|---------------8-7---7-----7---7---------------8-7---7-----7---7-|
|-5-5-5-6-5-5-5-----8---6-6---5---5-5-5-6-5-5-5-----8---6-6---5---|
|-----------------------------------------------------------------|

PREBREAKDOWN---
(1:12)
|---------------------------------------|
|---------------------------------------|
|-5-(tremolo-pick-and-gradually-bend)-7-|
|---------------------------------------|
|---------------------------------------|
|---------------------------------------|

(1:16)
|---------------------------------------|
|---------------------------------------|
|-5-~~~~~~~~~~~~~~~~~~~~~~~~~~~~~~~~~-7-|
|---------------------------------------|
|---------------------------------------|
|---------------------------------------|

(1:20)
|---------------------------------------|
|---------------------------------------|
|-5-~~~~~~~~~~~~~~~~~~~~~~~~~~~~~~~~~-7-|
|---------------------------------------|
|---------------------------------------|
|---------------------------------------|

(1:24)
|---------------------------------------|
|---------------------------------------|
|-5-~~~~~~~~~~~~~~~~~~~~~~~~~~~~~~~~~-7-|
|---------------------------------------|
|---------------------------------------|
|---------------------------------------|

BREAKDOWN 2---
(1:28)
|-------------------------------------------------------------------|
|-------------------------------------------------------------------|
|-------------------------------------------------------------------|
|-------------------------------------------------------------------|
|-0h1h5-0h1h5-----------------0h1h5-0h1h5-----------------5h6p5-3h5-|
|-------------0-0-0-0-0-0-0-0-------------0-0-0-0-0-0-0-0-----------|
              . . . . . . . .             . . . . . . . .

(1:32)
|-------------------------------------------------------------------|
|-------------------------------------------------------------------|
|-------------------------------------------------------------------|
|-------------------------------------------------------------------|
|-0h1h5-0h1h5-----------------0h1h5-0h1h5-----------------5h6p5-3h5-|
|-------------0-0-0-0-0-0-0-0-------------0-0-0-0-0-0-0-0-----------|
              . . . . . . . .             . . . . . . . .

(1:37)
|-------------------------------------------------------------------|
|-------------------------------------------------------------------|
|-------------------------------------------------------------------|
|-------------------------------------------------------------------|
|-0h1h5-0h1h5-----------------0h1h5-0h1h5-----------------5h6p5-3h5-|
|-------------0-0-0-0-0-0-0-0-------------0-0-0-0-0-0-0-0-----------|
              . . . . . . . .             . . . . . . . .

(1:41)
|-------------------------------------------------------------------|
|-------------------------------------------------------------------|
|-------------------------------------------------------------------|
|-------------------------------------------------------------------|
|-0h1h5-0h1h5-----------------0h1h5-0h1h5-----------------5h6p5-3h5-|
|-------------0-0-0-0-0-0-0-0-------------0-0-0-0-0-0-0-0-----------|
              . . . . . . . .             . . . . . . . .

SOLO 1---
(1:45)
|--------------------------------------------------------------|
|-------------------------------9------9-10h13p10-9---12*\5/12-|
|-7b9~~~~~--10-9-10--7b9~~~~~-----10-9--------------9----------|
|--------------------------------------------------------------|
|--------------------------------------------------------------|
|--------------------------------------------------------------|

(1:49)
|------------------------------------------------------------------|
|-12h13p12-10h12p10-9h10p9-----------------------------------------|
|--------------------------10h13p10-------------------------7h9h10-|
|-----------------------------------14p12p10-12p10p9-7h9h10--------|
|------------------------------------------------------------------|
|------------------------------------------------------------------|

--------------------------------------|
--------------------------------------|
-9p7p5--------------------------------|
-------9p7p6-----6h7p6-----6h7p6------|
-------------7h8-------7h8--------7~~-|
--------------------------------------|

PRESOLO---
(1:54)
|---------------------------------------------------------------------|
|---------------------------------------------------------------------|
|---------------------------------------------------------------------|
|---------------------------------------------------------------------|
|---------------------------------------------------------------------|
|-0-0-0-0-0-0-0-0-0-0-0-0-0-0-1h4p1-0-0-0-0-0-0-0-0-0-0-0-0-0-0-1h4p1-|
    . .   . .   . .   . .   .         . .   . .   . .   . .   .

SOLO 2---
(1:58)
|-12~~~~~~~~~~~--13h16p13-------13/16h17p16-------16-17h19p17--------------|
|-15b17~~~17~~~-----------12h15-------------15h18-------------17-----------|
|----------------------------------------------------------------16--------|
|-------------------------------------------------------------------18-----|
|----------------------------------------------------------------------19~-|
|--------------------------------------------------------------------------|

|-----------------------------------------------------------------|
|-----------------------------------------------------------------|
|-10*p9p7---------------------------5h7h9/10p9p7-9h10h13/14p13p10-|
|---------10p9p7\6h7h9/10p9p7\6h7h9-------------------------------|
|-----------------------------------------------------------------|
|-----------------------------------------------------------------|

---------------------------12h13h16/17h19h20-22~-22p20----20b22~~-|
-9h10h12-13p12p10-12h13h15-----------------------------22---------|
------------------------------------------------------------------|
------------------------------------------------------------------|
------------------------------------------------------------------|
------------------------------------------------------------------|

POST-SOLO---
(2:06)
|---------------------------------------------------------------------|
|---------------------------------------------------------------------|
|---------------------------------------------------------------------|
|---------------------------------------------------------------------|
|---------------------------------------------------------------------|
|-0-0-0-0-0-0-0-0-0-0-0-0-0-0-0h1p0-0-0-0-0-0-0-0-0-0-0-0-0-0-0-1h4p1-|
    . .   . .   . .   . .   .         . .   . .   . .   . .   .

(2:10)
|---------------------------------------------------------------------|
|---------------------------------------------------------------------|
|---------------------------------------------------------------------|
|---------------------------------------------------------------------|
|---------------------------------------------------------------------|
|-0-0-0-0-0-0-0-0-0-0-0-0-0-0-0h1p0-0-0-0-0-0-0-0-0-0-0-0-0-0-0-1h4p1-|
    . .   . .   . .   . .   .         . .   . .   . .   . .   .

(2:14)
|---------------------------------------------------------------------|
|---------------------------------------------------------------------|
|---------------------------------------------------------------------|
|---------------------------------------------------------------------|
|---------------------------------------------------------------------|
|-0-0-0-0-0-0-0-0-0-0-0-0-0-0-0h1p0-0-0-0-0-0-0-0-0-0-0-0-0-0-0-1h4p1-|
    . .   . .   . .   . .   .         . .   . .   . .   . .   .

(2:18)
|---------------------------------------------------------------------|
|---------------------------------------------------------------------|
|---------------------------------------------------------------------|
|---------------------------------------------------------------------|
|---------------------------------------------------------------------|
|-0-0-0-0-0-0-0-0-0-0-0-0-0-0-0h1p0-0-0-0-0-0-0-0-0-0-0-0-0-0-0-1h4p1-|
    . .   . .   . .   . .   .         . .   . .   . .   . .   .

BREAK---
(2:23)
|-----------------------------------------------------------------|
|-----------------------------------------------------------------|
|-----------------------------------------------------------------|
|-----------------------------------------------------------------|
|---------------1-0---0---------0---------------1-0---0---------0-|
|-0-1-0-3-0-1-0-----3---0-1-3-0---0-1-0-3-0-1-0-----3---0-1-3-0---|

(2:27)
|-----------------------------------------------------------------|
|-----------------------------------------------------------------|
|-----------------------------------------------------------------|
|-------------------------------------------------8/7---6/5---7/6-|
|---------------1-0---0---------0-----------------8/7---6/5---7/6-|
|-0-1-0-3-0-1-0-----3---0-1-3-0---0-1-0-3-0-1-0-0-8/7-0-6/5-0-7/6-|
                                                      .     .


(2:31-2:49)
I'M SO SORRY BUT I CAN'T FIGURE THIS OUT AT THE MOMENT. I PROMISE I WILL GET TO IT 
THE NEXT COUPLE DAYS. PLEASE DON'T RATE MY TAB TERRIBLY AS IT WILL BE UPDATED SOON. JUST BE 
AND KNOW THIS IS THE FIRST "FULL" BEYOND OUR SUFFERING TAB WITH THE SOLO. SORRY 
FOR THE INCONVENIENCE.





Comments


Popular As I Lay Dying tabs & chords
Elegy Bass Tabs
Forever Bass Tabs
Illusions Bass Tabs
Behind Me Lies Another Fallen Soldier Intro Tabs
Comfort Betrays 1 Tabs
Elegy Live Tabs
Falling Upon Deaf Ears Tabs
No Lungs To Breathe Intro Tabs
Repeating Yesterday 1 Tabs
Truth Of My Perception 3 Tabs


Song lyrics



↑ Back to top | Tablatures and chords are parodies/interpretations of the original songs. You may use it for private study, scholarship, research or language learning purposes only
© 2014 AZChords.com Contact us | Privacy policy | DMCA | Add/correct tabs | Request tabs | Top 50 tabs