» » »

As I Lay Dying, Anodyne Sea Tabs (ver.1)

Artists:  A B C D E F G H I J K L M N O P Q R S T U V W X Y Z # 

Anodyne Sea Tabs (ver.1)

As I Lay Dying Tabs
Rating:
4/5 (3 votes)
Anodyne Sea lessons Tabs too difficult? Try these video lessons and learn fast
                Intro:
Eb|----------------------------|
Bb|----------------------------|
Gb|----------------------------|
Db|-0--------------------------|
Ab|-0------0-5-8-7-5-----0-4-7-|
Db|-0--000-----------000-------| 
       ...           ...

Eb|----------------------------|
Bb|----------------------------|
Gb|----------------------------|
Db|----------------------3-7-2-|
Ab|-8-5-----0-5-8-7-5----1-5-0-|
Db|-----000-----------00-------|
        ...           ..

Eb|----------------------------|
Bb|----------------------------|
Gb|----------------------------|
Db|-0------------------------3-|
Ab|-0------0-5-8-7-5-----0-4---|
Db|-0--000-----------000-------|
       ...           ...

Eb|-------------------------------|
Bb|-------------------------------|
Gb|-------------------------------|
Db|-5-2-----5-8-5-7-5-----5---7---|
Ab|-------------------8-7---8---7-|
Db|-----000-----------------------|
        ...     .   . . . . . . .

Verse: Play Intro 2 More Times:
Eb|----------------------------------------|
Bb|----------------------------------------|
Gb|----------------------------------------|
Db|-7-8-7-----------------5----7----8----5-|
Ab|-5-6-5-----------------5----5----5----5-|
Db|-------000000000000-00---00---00---00---|
          ............ ..   ..   ..   ..

Eb|----------------------------------------|
Bb|----------------------------------------|
Gb|----------------------------------------|
Db|-7-8-7-----------------5---10----8----5-|
Ab|-5-6-5-----------------5----5----5----5-|
Db|-------000000000000-00---00---00---00---|4x
          ............ ..   ..   ..   ..

Chorus:
Eb|----------------------------|
Bb|----------------------------|
Gb|----------------------------|
Db|-5------3------1------5-----|
Ab|-5-16x--3-16x--1-16x--5-16x-|
Db|-5------3------1------5-----|

Pre. Verse:
Eb|----------------------------|
Bb|----------------------------|
Gb|----------------------------|
Db|-0--------------------------|
Ab|-0------0-5-8-7-5-----0-4-7-|
Db|-0--000-----------000-------| 
       ...           ...
Eb|----------------------------|
Bb|----------------------------|
Gb|----------------------------|
Db|----------------------3-7-2-|
Ab|-8-5-----0-5-8-7-5----1-5-0-|
Db|-----000-----------00-------|
        ...           ..

Verse:

Chorus:
Eb|----------------------------|
Bb|----------------------------|
Gb|----------------------------|
Db|-5------3------1------5-----|
Ab|-5-16x--3-16x--1-16x--5-16x-|
Db|-5------3------1------5-----|2x

Eb|----------------------------|
Bb|----------------------------|
Gb|----------------------------|
Db|-8------3------0------5-----|
Ab|-8-16x--3-16x--0-16x--5-16x-|
Db|-8------3------0------5-----|

Bridge:
Eb|---------------|-------------------------------|
Bb|-------2x------|-------------------------------|
Gb|---------------|-------------------------------|
Db|-1---1-----1---|-5---5-----5-----3---3-----3---|
Ab|-1---1-----1---|-5---5-----5-----3---3-----3---|
Db|-1-1-1---1-1-1-|-5-5-5---5-5-5---3-3-3---3-3-3-|
      .     .   .     .     .   .     .     .   .

Eb|--------|--------------|D5 &  Same As Above
Bb|--------|--------------|
Gb|--------|--------------|
Db|-1----5-|-3---3--------|
Ab|-1----5-|-3---3--------|
Db|-1----5-|-3-3-3--3-12\-|

2nd Part of Verse: 2x

Breakdown:
Eb|---------------------------|
Bb|---------------------------|
Gb|---------------------------|
Db|---------------------------|
Ab|-----%------%--------%-----|
Db|-00-----00-----0000-----00-|
    ..     ..     ....     ..

Eb|-----------------------|
Bb|-----------------------|
Gb|-----------------------|
Db|-----------------------|
Ab|-------%--------%------|
Db|-0000-----0000-----000-|2x
    ....     ....     ...

2nd Ending:
Eb|-------------------|
Bb|-------------------|
Gb|-------------------|
Db|-------------------|
Ab|-------%-----------|
Db|-0000-----0000-19\-|
    ....     ....

Eb|------------------------------|
Bb|------------------------------|
Gb|------------------------------|
Db|------------------------------|
Ab|--------%--------%------------|
Db|-00000-----00000----000000000-|
    .....     .....    .........

                          4th Ending:
Eb|---------------------|--------------------|
Bb|---------4-times-----|--------------------|
Gb|---------------------|--------------------|
Db|---------------------|--------------------|
Ab|--------%------------|-------%------------|
Db|-00000-----000000000-|-0000-----00000-17\-|

Chorus: Same As Chorus 2:

Outro:
Eb|-------------|-------------|---|---|---|---|
Bb|-------------|-------------|---|---|---|---|
Gb|-------------|-------------|---|---|---|---|
Db|-1----1----1-|-5----5----5-|-3-|-1-|-5-|-3-|
Ab|-1----1----1-|-5----5----5-|-3-|-1-|-5-|-3-|
Db|-1----1----1-|-5----5----5-|-3-|-1-|-5-|-3-|

Play Bridge Riff:
Than Play Above Riff But Only The 555 & 333
Eb|---|
Bb|---|
Gb|---|
Db|-5-|
Ab|-5-|
Db|-5-|
            

comments powered by Disqus
↑ Back to top | As I Lay Dying Tabs for Anodyne Sea. Lyrics for acoustic guitar and electric guitar. Tablatures and chords are parodies/interpretations of the original songs. You may use it for private study, scholarship, research or language learning purposes only