» » »

94 Hours Bass tabs (ver.1)

Artists:  A B C D E F G H I J K L M N O P Q R S T U V W X Y Z # 

94 Hours Bass tabs (ver.1)

As I Lay Dying
Rating:
3/5 (7 votes)

Hard to play? Try these video lessons and learn fast.
                

As I Lay Dying - 94 Hours


CD - Frail Words Collapse

this is an awesome song haha i love it but its kinda hard so u might
wanna practice...here ya go!


*UPDATE 7/09/07


Keys:


/ or \ - slide up or down to note

p - pull off

h - hammer on

() - let note ring

r - rest


Tuning - Drop C

4-string (C G C F)

5-string (G C G C F) or just tune the last 4 strings haha...


Intro:
F----------------------------------|
C----------------------------------|x2
G-----------------33333333---------|
C-0r----2h3p2-0r-------------------|


     Verse 1: (0:15)
F-------------------------------------------------------------------------|
C--3p0-7p0-3p0-5p0-3p0-2h3p2-0--3p0-7p0-3p0-5p0-3p0-----------------------|X4
G------------------------------------------------------3333---------------|
C-0----------------------------------------------------------0------------|

play the verse kinda fast.....listen to the song it helps...

end on open fret bottom string and let the note ring:

F-------------|
C-------------|
G-------------|
C-(0)---0r----|


play this after you let the note ring:

     Pre-Verse Part 1:
F-------------------16p0-14-----------------------------------|
C-------------------------------------------------------------|X4
G-------------------------------------------------------------|
C-0-0000-----000000-------------------------------------------|


F---------------------------------------------|
C---------------------------------------------|
G---------------------------------------------|
C-0-0000--000000-0-12\------------------------|

F---------------------------------------------------|
C---------------------------------------------------|X4
G---------------------------------------------------|
C-0-0000-000000-------------------------------------|

F----------------------------------------|
C----------------------------------------|X3
G---------------0h5h7-------0h6h7--------|
C-0-0000--0h5h7-------0h6h7--------------|

C-000------------------

     Verse 2:
F--------------------------------------------------------------------|
C---3p0-7p0-3p0-5p0-3p0-2h3p2--3p0-7p0-3p0-5p0-3p0-------------------|X4
G--------------------------------------------------3333--------------|
C-0---------------------------0--------------------------------------|

then play this:


F-----------------------------------|
C-----------------------------------|X4
G-----7-8---------------------------|
C-0-0------10-8---------------------|


F-----------------------------------|
C-----------------------------------|X2
G-----------------------------------|
C-(0)--(0)-(8)-(10)-(7)-------------|

     breakdown: (one of the sickest breakdowns i've ever heard)
F----------------------------14-12-10-9-------------------------------------------|
C---------------------------------------------------------------------------------|X4
G---------------------------------------------------------------------------------|
C-000-000-000-888-101010-777------------------------------------------------------|


then finally the end.


F------------------|
C------------------|
G------------------|
C-(0)--------------|
            
Hard to play? Try these video lessons and learn fast. | Correct




comments powered by Disqus
↑ Back to top | Tablatures and chords are parodies/interpretations of the original songs. You may use it for private study, scholarship, research or language learning purposes only