>
 >
Shindoukaku

Shindoukaku Guitar Tabs

Asian Kung-Fu Generation - Shindoukaku chords, tabs, tablatures, lyrics

Guitar lessons | Add/correct | Request | Top 50 tabs Artists:  A B C D E F G H I J K L M N O P Q R S T U V W X Y Z 0-9

Shindoukaku Guitar Tabs – Asian Kung-Fu Generation

CD, Sheet music, Poster

Do you like Shindoukaku? Share with your friends now
Tabs
Tuning:  Standard

Notes:  There are 3 or so guitars in this.  The third guitar is kind-of ambigously 
(meaning,
it was placed a certain distance away from the center and the volume on it is low), so 
just
there as overtones but I decided to include them.

Guitar 1:

e|---------------------------------------------------------------------------|
B|---------------------------------------------------------------------------|
G|11-13-9--11-13-16--11-13-9--8-6~-------------------------------------------|
D|x--x--x--x--x--x---x--x--x--x-x--------------------------------------------|x2
A|9--11-7--9--11-14--9--11-7--6-4~-------------------------------------------|
E|---------------------------------------------------------------------------|

After the first time, Guitar 2 plays:

e|---------------------------------------------------------------------------|
B|---------------------------------------------------------------------------|
G|-------------------66-------99---------------------------------------------|
D|77-------55--------66-------99---------------------------------------------|
A|77-------66--------44-------77---------------------------------------------|
E|55-------44----------------------------------------------------------------|

When all the instruments come in

Guitar One:
e|--------------------------------------------------------------|
B|--------------------------------------------------------------|
G|1113-9-13\11-1113-16-13-11------------------------------------|
D|x-x--x-x--x--x-x--x--x--x-------------------------------------|x3
A|9-11-7-11\9--9-11-14-11-9-------------------------------------|
E|--------------------------------------------------------------|

Guitar Two:
e|--------------------------------------------------------------|
B|--------------------------------------------------------------|
G|-------------6666-9999----------------------------------------|
D|7777-5555----6666-9999----------------------------------------|x4
A|7777-6666----4444-7777----------------------------------------|
E|5555-4444-----------------------------------------------------|

Guitar Three (overlaping)

e|--------------------------------------------------------------|
B|--------------------------------------------------------------|
G|9999-9999---6666-9999-----------------------------------------|
D|xxxx-xxxx---xxxx-xxxx-----------------------------------------|x4
A|7777-7777---4444-7777-----------------------------------------|
E|--------------------------------------------------------------|

On the fourth time around, Guitar one plays:

e|--------------------------------------------------------------|
B|--------------------------------------------------------------|
G|1113-9-13\11-1113-16161616------------------------------------|
D|x-x--x-x--x--x-x--x-x-x-x-------------------------------------|
A|9-11-7-11\9--9-11-14141414------------------------------------|
E|--------------------------------------------------------------|


Verse (Mostly Guitar One):

e|-------------------------------00-----------------------------|
B|-------------------------------55-----------------------------|
G|13~---/14-13~---9~---/11-9~----44-----------------------------|
D|x-----/x--x-----x----/x--x~-----------------------------------|
A|11~---/12-11~---7~---/9--7~-----------------------------------|
E|--------------------------------------------------------------|

Then, Guitar One (upstrokes)
e|--00-00-00-00-00-00-00-00-00-00-00-00-00-00-00-00-------------|
B|--55-55-55-55-55-55-55-55-55-55-55-55-55-55-55-55-------------|
G|--44-44-44-44-44-44-44-44-44-44-44-44-44-44-44-44-------------|
D|--------------------------------------------------------------|
A|--------------------------------------------------------------|
E|--------------------------------------------------------------|

Guitar Two (palm Muted)

e|----------------------------------------------------------------------------|
B|----------------------------------------------------------------------------|
G|----------------------------------------------------------------------------|
D|-9999-9999-9999-9999-9999-9999--999999-9999-9999--999999--------------------|
A|----------------------------------------------------------------------------|
E|----------------------------------------------------------------------------|
pm .... .... .... .... .... ....  ...... .... ....  ......

Chorus:

Guitar One:

e|--------------------------------------------------------------|
B|--------------------------------------------------------------|
G|--------------------------------------------------------------|
D|2-222222-2-222222-4-444444-4-444444---------------------------|
A|2-222222-2-222222-4-444444-4-444444---------------------------|
E|0-000000-0-000000-2-222222-2-222222---------------------------|

Guitar Two:

e|--------------------------------------------------------------|
B|--------------------------------------------------------------|
G|16~--------131113---131113---131113---------------------------|
D|x----------x-x-x----x-x-x----x-x-x----------------------------|
A|14~--------119-11---119-11---119-11---------------------------|
E|--------------------------------------------------------------|

Guitar One:

e|--------------------------------------------------------------|
B|--------------------------------------------------------------|
G|------------------9-999999-9-999999---------------------------|
D|7-777777-7-777777-9-999999-9-999999---------------------------|
A|7-777777-7-777777-7-777777-7-777777---------------------------|
E|5-555555-5-555555---------------------------------------------|

Guitar Two:

e|--------------------------------------------------------------|
B|--------------------------------------------------------------|
G|16~--------131113---131113---131113---------------------------|
D|x----------x-x-x----x-x-x----x-x-x----------------------------|
A|14~--------119-11---119-11---119-11---------------------------|
E|--------------------------------------------------------------|

Guitar One:

e|--------------------------------------------------------------|
B|--------------------------------------------------------------|
G|--------------------------------------------------------------|
D|2-222222-2-222222-4-444444-4-444444---------------------------|
A|2-222222-2-222222-4-444444-4-444444---------------------------|
E|0-000000-0-000000-2-222222-2-222222---------------------------|

Guitar Two:

e|--------------------------------------------------------------|
B|--------------------------------------------------------------|
G|9~-------131113---16~--------131113---------------------------|
D|x--------x-x-x----x----------x-x-x----------------------------|
A|7~-------119-11---14~--------119-11---------------------------|
E|--------------------------------------------------------------|

Guitar One:

e|--------------------------------------------------------------|
B|--------------------------------------------------------------|
G|------------------9-999999-9-999999---------------------------|
D|7-777777-7-777777-9-999999-9-999999---------------------------|
A|7-777777-7-777777-7-777777-7-777777---------------------------|
E|5-555555-5-555555---------------------------------------------|

Guitar Two (The tab should sync with the top in terms of sound):

e|--------------------------------------------------------------|
B|--------------------------------------------------------------|
G|9~-------131113---16-161616161616-1616161616161616------------|
D|x--------x-x-x----x--x-x-x-x-x-x--x-x-x-x-x-x-x-x-------------|
A|7~-------119-11---14-141414141414-1414141414141414------------|
E|--------------------------------------------------------------|

Post Chorus:

Guitar One (those are 11's, not 1's):

e|---------------------------------------------------------------------------------|
B|---------------------------------------------------------------------------------|
G|------------------6-6-6-6--9-9-9-9--11-11-11-11--13-13-13-13---------------------|
D|7-7-7-7--5-5-5-5--6-6-6-6--9-9-9-9--11-11-11-11--13-13-13-13--9-9-9-9-11-11-11-11|x2
A|7-7-7-7--6-6-6-6--4-4-4-4--7-7-7-7--9--9--9--9---11-11-11-11--9-9-9-9-11-11-11-11|
E|5-5-5-5--4-4-4-4----------------------------------------------7-7-7-7-9--9--9--9-|

Guitar Two:

e|---------------------------------------------------------------------------------|
B|7h9p7-----7-9-7---7~--9----7h9p7----7h9p7----------7-9-7------7~--9---7h9p7------|
G|-----9-8-9-----------------------9--------9-8---8-9-------------------------9~---|
D|---------------------------------------------------------------------------------|x2
A|---------------------------------------------------------------------------------|
E|---------------------------------------------------------------------------------|

Then a shorter version of the intro is played:

Guitar One:
e|--------------------------------------------------------------|
B|--------------------------------------------------------------|
G|1113-9-13\11-1113-16-13/11------------------------------------|
D|x-x--x-x--x--x-x--x--x--x-------------------------------------|x3
A|9-11-7-11\9--9-11-14-11/9-------------------------------------|
E|--------------------------------------------------------------|

Guitar Two:
e|--------------------------------------------------------------|
B|--------------------------------------------------------------|
G|-------------6666-9999----------------------------------------|
D|7777-5555----6666-9999----------------------------------------|x4
A|7777-6666----4444-7777----------------------------------------|
E|5555-4444-----------------------------------------------------|

Guitar Three (overlaping)

e|--------------------------------------------------------------|
B|--------------------------------------------------------------|
G|9999-9999---6666-9999-----------------------------------------|
D|xxxx-xxxx---xxxx-xxxx-----------------------------------------|x4
A|7777-7777---4444-7777-----------------------------------------|
E|--------------------------------------------------------------|

On the fourth time around, Guitar one plays:

e|--------------------------------------------------------------|
B|--------------------------------------------------------------|
G|1113-9-13\11-1113-16161616------------------------------------|
D|x-x--x-x--x--x-x--x-x-x-x-------------------------------------|
A|9-11-7-11\9--9-11-14141414------------------------------------|
E|--------------------------------------------------------------|

Breakdown:

Guitar One:

e|--------------------------------------------------------------|
B|--------------------------------------------------------------|
G|13~----11-11/13-1313/18--16~----13~---------------------------|
D|x------x--x--x--x-x--x---x------x-----------------------------|x2
A|11~----9--9-/11-1111/16--14~----11~---------------------------|
E|--------------------------------------------------------------|

Guitar Two:

e|--------------------------------------------------------------|
B|--------------------------------------------------------------|
G|9~----11~----------------8~-----9~----------------------------|
D|x-----X------------------x------X-----------------------------|x2
A|7~----9~-----------------6~-----7~----------------------------|
E|--------------------------------------------------------------|

Guitar One (When strumming, lower the pressure on the fingering to get the scratchy effect)

e|--------------------------------------------------------------|
B|--------------------------------------------------------------|
G|20-20-x-x-20-20--21-21-x-x-21-21------------------------------|
D|x--x--x-x-x--x---x--x--x-x-x--x-------------------------------|x4
A|18-18-x-x-18-18--19-19-x-x-19-19------------------------------|
E|--------------------------------------------------------------|

Guitar Two just strums:

e|--------------------------------------------------------------|
B|--------------------------------------------------------------|
G|9-9-9-9-9-9-9-9--9-9-9-9-9-9-9-9------------------------------|
D|x-x-x-x-x-x-x-x--x-x-x-x-x-x-x-x------------------------------|x4
A|7-7-7-7-7-7-7-7--7-7-7-7-7-7-7-7------------------------------|
E|--------------------------------------------------------------|

Guitar One:

e|--------------------------------------------------------------|
B|--------------------------------------------------------------|
G|13~-------11-13-18--16~-------13~-----------------------------|
D|x---------x--x--x---x---------x-------------------------------|
A|11~-------9--11-16--14~-------11~-----------------------------|
E|--------------------------------------------------------------|

Guitar Two:

e|--------------------------------------------------------------|
B|--------------------------------------------------------------|
G|--------------------6-666666--9-999999------------------------|
D|7--777777-5--555555-6-666666--9-999999------------------------|
A|7--777777-6--666666-4-444444--7-777777------------------------|
E|5--555555-4--444444-------------------------------------------|

Guitar One:

e|--------------------------------------------------------------|
B|--------------------------------------------------------------|
G|/20-20202020-21-21212121-16-16161616-13-13131313--------------|
D|-x--x-x-x-x--x--x-x-x-x--x--x-x-x-x--x--x-x-x-x---------------|
A|/18-18181818-19-19191919-14-14141414-11-11111111--------------|
E|--------------------------------------------------------------|

Guitar Two:

e|--------------------------------------------------------------|
B|--------------------------------------------------------------|
G|-------------------------6--666666---9--999999----------------|
D|-7--777777---5--555555---6--666666---9--999999----------------|
A|-7--777777---6--666666---4--444444---7--777777----------------|
E|-5--555555---4--444444----------------------------------------|

Small Solo

Guitar One:

e|--------------------------------------------------------------|
B|7h9p7-----7-9-7~(7)-------------------------------------------|
G|-----9-8-9-------------202020/18181818/16-16161616-13131313---|
D|-----------------------x-x-x--x-x-x-x--x--x-x-x-x--x-x-x-x----|
A|-----------------------181818/16161616/14-14141414-11111111---|
E|--------------------------------------------------------------|

Guitar Two:

e|--------------------------------------------------------------|
B|--------------------------------------------------------------|
G|--------------9--9~-----------------------4-4-4-4--6-6-6-6----|
D|--------------9--9~----4-4-4--4-6-6-6--6--x-x-x-x--x-x-x-x----|
A|--------------7--7~----x-x-x--x-x-x-x--x--2-2-2-2--4-4-4-4----|
E|-----------------------2-2-2--2-4-4-4--4----------------------|

Ending

Guitar One:

e|---------------------------------------------------------------------------------|
B|---------------------------------------------------------------------------------|
G|------------------6-6-6-6--9-9-9-9--11-11-11-11--13-13-13-13---------------------|
D|7-7-7-7--5-5-5-5--6-6-6-6--9-9-9-9--11-11-11-11--13-13-13-13--9-9-9-9-11-11-11-11|x3
A|7-7-7-7--6-6-6-6--4-4-4-4--7-7-7-7--9--9--9--9---11-11-11-11--9-9-9-9-11-11-11-11|
E|5-5-5-5--4-4-4-4----------------------------------------------7-7-7-7-9--9--9--9-|

Guitar Two:

e|---------------------------------------------------------------------------------|
B|7h9p7-----7-9-7---7~--9----7h9p7----7h9p7----------7-9-7------7~--9---7h9p7------|
G|-----9-8-9-----------------------9--------9-8---8-9-------------------------9~---|
D|---------------------------------------------------------------------------------|x3
A|---------------------------------------------------------------------------------|
E|---------------------------------------------------------------------------------|

DONE!





Comments


Popular Asian Kung-Fu Generation tabs & chords
Haruka Kanata 4 Bass Tabs
Kaiga Kyoushitsu Bass Tabs
Kaiga Kyoushitsu 2 Bass Tabs
Kimi To Iu Hana Bass Tabs
Mustang Bass Tabs
Ngs Bass Tabs
Kimi No Machi Made Tabs
Powder Snow Tabs
Rewrite 1 Tabs
Haruka Kanata Ukulele


Song lyrics



↑ Back to top | Tablatures and chords are parodies/interpretations of the original songs. You may use it for private study, scholarship, research or language learning purposes only
© 2014 AZChords.com Contact us | Privacy policy | DMCA | Add/correct tabs | Request tabs | Top 50 tabs