>
 >
Rewrite 1

Rewrite 1 Guitar Tabs

Asian Kung-Fu Generation - Rewrite 1 chords, tabs, tablatures, lyrics

Guitar lessons | Add/correct | Request | Top 50 tabs Artists:  A B C D E F G H I J K L M N O P Q R S T U V W X Y Z 0-9

Rewrite 1 Guitar Tabs – Asian Kung-Fu Generation

CD, Sheet music, Poster

Do you like Rewrite 1? Share with your friends now
Bass TabsChordsTabsTabs v2Tabs v3Ukulele
Rewrite
Asian Kung-Fu Generation

Toshiro

Tuning:
Lead Guitar: E-A-D-G-B-E
Rhythm Guitar: E-A-D-G-B-E

-----------------------------------------------------------

LEAD GUITAR

Intro (Distorted)
|------------------------------|-----------------------------------------|
|------------------------------|-----------------------------------------|
|-11-11---9-9---16-16-----(x3)-|-11-11---9-9---16-16--16-16--16-16-16-16-|
|-x--x----x-x---x--x-----------|-x--x----x-x---x--x---x--x---x--x--x--x--|
|-9--9----7-7---14-14----------|-9--9----7-7---14-14--14-14--14-14-14-14-|
|------------------------------|-----------------------------------------|

Pre-Verse (x2, Distorted)
|----------------------------|----------------------------|
|----------------------------|----------------------------|
|----------------------------|----------------------------|
|---2---2/6--6-6-4--2-4--2---|---2---2/6--6-6-4--2-4--2---|
|-0---0----------------------|-2---2----------------------|
|----------------------------|----------------------------|

Verse (x4, Clean)
|-----------------------------------|
|-----------0-----------------------|
|-------1------1---------1----------|
|---2----------------2-------4--2---|
|-0---0------------2---2------------|
|-----------------------------------|

Pre-Verse (x2, Distorted)
|----------------------------|----------------------------|
|----------------------------|----------------------------|
|----------------------------|----------------------------|
|---2---2/6--6-6-4--2-4--2---|---2---2/6--6-6-4--2-4--2---|
|-0---0----------------------|-2---2----------------------|
|----------------------------|----------------------------|

Verse (Clean, Chords at the end Distorted)
|----------------------------------------|
|-----------0----------------------------|
|-------1------1---------1---------------|
|---2----------------2-------4--2---(x3)-|
|-0---0------------2---2-----------------|
|----------------------------------------|

|----------------------------------------|
|-----------0----------------------------|
|-------1------1---------1---9-9-9-9-9---|
|---2----------------2-------9-9-9-9-9---|
|-0---0------------2---2-----7-7-7-7-7---|
|----------------------------------------|

Chorus (Distorted)
|-------------------------------------------------|
|-------------------------------------------------|
|-11-11---9-9---16-16--16-16--16-16-16-16---------|
|-x--x----x-x---x--x---x--x---x--x--x--x----(x12)-|
|-9--9----7-7---14-14--14-14--14-14-14-14---------|
|-------------------------------------------------|

|-------------------------------------|
|-9--9-10--10-9--9-10--10-9--10-------|
|-9--9-9---9--9--9-9---9--9--9--------|
|--------------------------------(x4)-|
|-------------------------------------|
|-------------------------------------|

Pre-Interlude (x2, Distorted, On second do not slide down)
|----------------------------|----------------------------|
|----------------------------|----------------------------|
|----------------------------|----------------------------|
|---2---2/6--6-6-4--2-4--2---|---2---2/6--6-6-4--2-4--2---|
|-0---0----------------------|-0---0----------------------|
|----------------------------|----------------------------|
pm........................................................

|------------------------------------------------------------|
|------------------------------------------------------------|
|-9--9-11--11----9--9-11--11----9--9-11--11----9--9-11--11\--|
|-x--x-x---x-----x--x-x---x-----x--x-x---x-----x--x-x---x----|
|-7--7-9---9-----7--7-9---9-----7--7-9---9-----7--7-9---9-\--|
|------------------------------------------------------------|

Interlude (x4, Clean, Let Ring)
|-4-----------7--------------|
|-------5-----------5--------|
|----6-----6-----6-----6-----|
|----------------------------|
|----------------------------|
|----------------------------|

Interlude (x4, Distorted, Staccato)
|-4-----------7--------------|
|-------5-----------5--------|
|----6-----6-----6-----6-----|
|----------------------------|
|----------------------------|
|----------------------------|

Interlude (Clean, Let ring, Chords at the end Distorted)
|-4-----------7------------------|-4-----------------------|
|-------5-----------5------------|-------5-----------------|
|----6-----6-----6-----6----(x3)-|----6-----6--6-6-6-6-6---|
|--------------------------------|-------------6-6-6-6-6---|
|--------------------------------|-------------4-4-4-4-4---|
|--------------------------------|-------------------------|

Chorus (Distorted)
|-------------------------------------------------|
|-------------------------------------------------|
|-11-11---9-9---16-16--16-16--16-16-16-16---------|
|-x--x----x-x---x--x---x--x---x--x--x--x----(x12)-|
|-9--9----7-7---14-14--14-14--14-14-14-14---------|
|-------------------------------------------------|

|-------------------------------------|
|-9--9-10--10-9--9-10--10-9--10-------|
|-9--9-9---9--9--9-9---9--9--9--------|
|--------------------------------(x4)-|
|-------------------------------------|
|-------------------------------------|

Outro (Distorted)
|-----------------------------------------------|
|-----------------------------------------------|
|-11-11---9-9---16-16--16-16--16-16-16-16-------|
|-x--x----x-x---x--x---x--x---x--x--x--x---(x3)-|
|-9--9----7-7---14-14--14-14--14-14-14-14-------|
|-----------------------------------------------|

|---------------------|
|---------------------|
|-11-11---9-9---16-16-|
|-x--x----x-x---x--x--|
|-9--9----7-7---14-14-|
|---------------------|

---------------------------------------------------------------

RHYTHM GUITAR (All Distorted)

Intro
|-----------------------------------------------------------------|
|-----------------------------------------------------------------|
|-6-6-6-6-6-6-6-6-----------------4-4-4-4-4-4-4-4-----------------|
|-6-6-6-6-6-6-6-6-7-7-7-7-7-7-7-7-4-4-4-4-4-4-4-4-4-4-4-4-4-4-4-4-|
|-4-4-4-4-4-4-4-4-7-7-7-7-7-7-7-7-2-2-2-2-2-2-2-2-4-4-4-4-4-4-4-4-|
|-----------------5-5-5-5-5-5-5-5-----------------2-2-2-2-2-2-2-2-|

|----------------------------------------------------------------|
|----------------------------------------------------------------|
|-6-6-6-6-6-6-6-6-----------------4-4-4-4-4-4-4-9---9-9--9-9-9-9-|
|-6-6-6-6-6-6-6-6-7-7-7-7-7-7-7-7-4-4-4-4-4-4-4-9---9-9--9-9-9-9-|
|-4-4-4-4-4-4-4-4-7-7-7-7-7-7-7-7-2-2-2-2-2-2-2-7---7-7--7-7-7-7-|
|-----------------5-5-5-5-5-5-5-5--------------------------------|

Pre-Verse (x2)
|-----------------------------------------------------------------|
|-----------------------------------------------------------------|
|-------------------------------------------------9-9-9-9-9-9-9-9-|
|-7-7-7-7-7-7-7-7-7-7-7-7-7-7-7-7-9-9-9-9-9-9-9-9-9-9-9-9-9-9-9-9-|
|-7-7-7-7-7-7-7-7-7-7-7-7-7-7-7-7-9-9-9-9-9-9-9-9-7-7-7-7-7-7-7-7-|
|-5-5-5-5-5-5-5-5-5-5-5-5-5-5-5-5-7-7-7-7-7-7-7-7-----------------|

Verse
|-------------------------|
|-------------------------|
|-------------------------|
|---------NOTHING---------|
|-------------------------|
|-------------------------|

Pre-Verse (x2)
|-----------------------------------------------------------------|
|-----------------------------------------------------------------|
|-------------------------------------------------9-9-9-9-9-9-9-9-|
|-7-7-7-7-7-7-7-7-7-7-7-7-7-7-7-7-9-9-9-9-9-9-9-9-9-9-9-9-9-9-9-9-|
|-7-7-7-7-7-7-7-7-7-7-7-7-7-7-7-7-9-9-9-9-9-9-9-9-7-7-7-7-7-7-7-7-|
|-5-5-5-5-5-5-5-5-5-5-5-5-5-5-5-5-7-7-7-7-7-7-7-7-----------------|

Verse
|----------------------|-----------------------------------------------|
|-10-----12------------|-----------------12-12-12-12-12-12-12-12-------|
|-9------11--9---------|-9-9-9-9-9-9-9-9-11-11-11-11-11-11-11-11-------|
|-7------9---9----(x2)-|-7-7-7-7-7-7-7-7-9--9--9--9--9--9--9--9---(x3)-|
|------------7---------|-7-7-7-7-7-7-7-7-------------------------------|
|----------------------|-----------------------------------------------|

|-----------------------------|
|-----------------------------|
|-9-9-9-9-9-9-9-9-9-9-9-9-9---|
|-7-7-7-7-7-7-7-7-9-9-9-9-9---|
|-7-7-7-7-7-7-7-7-7-7-7-7-7---|
|-----------------------------|

Chorus (x4)
|-----------------------------------------------------------------|
|-----------------------------------------------------------------|
|-----------------------------------------------------------------|
|-7-7-7-7-7-7-7-7-7-7-7-7-7-7-7-7-6-6-6-6-6-6-6-6-6-6-6-6-6-6-6-6-|
|-7-7-7-7-7-7-7-7-7-7-7-7-7-7-7-7-7-7-7-7-7-7-7-7-7-7-7-7-7-7-7-7-|
|-5-5-5-5-5-5-5-5-5-5-5-5-5-5-5-5-4-4-4-4-4-4-4-4-4-4-4-4-4-4-4-4-|

|-----------------------------------------------------------------|
|-----------------------------------------------------------------|
|---------------------------------9-9-9-9-9-9-9-9-9-9-9-9-9-9-9-9-|
|-9-9-9-9-9-9-9-9-9-9-9-9-9-9-9-9-9-9-9-9-9-9-9-9-9-9-9-9-9-9-9-9-|
|-9-9-9-9-9-9-9-9-9-9-9-9-9-9-9-9-7-7-7-7-7-7-7-7-7-7-7-7-7-7-7-7-|
|-7-7-7-7-7-7-7-7-7-7-7-7-7-7-7-7---------------------------------|

Pre-Interlude (x2, On second do not slide down)
|---------------------------------------------------------------|
|---------------------------------------------------------------|
|---------------------------------------------------------------|
|---------------------------------------------------------------|
|-0-0-0-0-0-0-0-0-0-0-0-0-0-0-0-0-0-0-0-0-0-0-0-0-0-0-0-0-0-0-0-|
|---------------------------------------------------------------|
pm..............................................................

|----------------------------------------------------|
|----------------------------------------------------|
|-9--9-9--9----9--9-9--9----9--9-9--9----9--9-9--9\--|
|-9--9-9--9----9--9-9--9----9--9-9--9----9--9-9--9\--|
|-7--7-7--7----7--7-7--7----7--7-7--7----7--7-7--7\--|
|----------------------------------------------------|

Interlude (Nothing until Lead's 3rd Interlude)
|--------------|---------------------|
|--------------|---------------------|
|-6------------|-----6---6-6-6-6-6---|
|-6-------(x3)-|-----6---6-6-6-6-6---|
|-4------------|-----4---4-4-4-4-4---|
|--------------|---------------------|

Chorus (x4)
|-----------------------------------------------------------------|
|-----------------------------------------------------------------|
|-----------------------------------------------------------------|
|-7-7-7-7-7-7-7-7-7-7-7-7-7-7-7-7-6-6-6-6-6-6-6-6-6-6-6-6-6-6-6-6-|
|-7-7-7-7-7-7-7-7-7-7-7-7-7-7-7-7-7-7-7-7-7-7-7-7-7-7-7-7-7-7-7-7-|
|-5-5-5-5-5-5-5-5-5-5-5-5-5-5-5-5-4-4-4-4-4-4-4-4-4-4-4-4-4-4-4-4-|

|-----------------------------------------------------------------|
|-----------------------------------------------------------------|
|---------------------------------9-9-9-9-9-9-9-9-9-9-9-9-9-9-9-9-|
|-9-9-9-9-9-9-9-9-9-9-9-9-9-9-9-9-9-9-9-9-9-9-9-9-9-9-9-9-9-9-9-9-|
|-9-9-9-9-9-9-9-9-9-9-9-9-9-9-9-9-7-7-7-7-7-7-7-7-7-7-7-7-7-7-7-7-|
|-7-7-7-7-7-7-7-7-7-7-7-7-7-7-7-7---------------------------------|

Outro
|-----------------------------------------------------------------|
|-----------------------------------------------------------------|
|-6-6-6-6-6-6-6-6-----------------4-4-4-4-4-4-4-4-----------------|
|-6-6-6-6-6-6-6-6-7-7-7-7-7-7-7-7-4-4-4-4-4-4-4-4-4-4-4-4-4-4-4-4-|
|-4-4-4-4-4-4-4-4-7-7-7-7-7-7-7-7-2-2-2-2-2-2-2-2-4-4-4-4-4-4-4-4-|
|-----------------5-5-5-5-5-5-5-5-----------------2-2-2-2-2-2-2-2-|

|-------------------------------------------------|
|-------------------------------------------------|
|-6-6-6-6-6-6-6-6-----------------4-4-4-4-4-4-----|
|-6-6-6-6-6-6-6-6-7-7-7-7-7-7-7-7-4-4-4-4-4-4-4-4-|
|-4-4-4-4-4-4-4-4-7-7-7-7-7-7-7-7-2-2-2-2-2-2-4-4-|
|-----------------5-5-5-5-5-5-5-5-------------2-2-|





Comments


Popular Asian Kung-Fu Generation tabs & chords
Flash Back 2 Bass Tabs
Mustang Bass Tabs
Haruka Kanata 4 Chords
Maigoinu To Ame No Beat Chords
24 Ji Tabs
Blue Train Tabs
Haruka Kanata 1 Tabs
My WorldSolo Tabs
Powder Snow Tabs
Rashinban Compass Tabs


Song lyrics



↑ Back to top | Tablatures and chords are parodies/interpretations of the original songs. You may use it for private study, scholarship, research or language learning purposes only
© 2014 AZChords.com Contact us | Privacy policy | DMCA | Add/correct tabs | Request tabs | Top 50 tabs