>
 >
Rewrite

Rewrite Guitar Tabs

Asian Kung-Fu Generation - Rewrite chords, tabs, tablatures, lyrics

Guitar lessons | Add/correct | Request | Top 50 tabs Artists:  A B C D E F G H I J K L M N O P Q R S T U V W X Y Z 0-9

Rewrite Guitar Tabs – Asian Kung-Fu Generation

CD, Sheet music, Poster

Do you like Rewrite? Share with your friends now
Bass TabsChordsTabsTabs v2Tabs v3Ukulele
Rewrite by ASIAN KUNG-FU GENERATION

Full Metal Alchemist OST


I heard this song on the Full Metal Alchemist intro and fell in love with it.
So here I am tabbing it. Enjoy. 2 guitars, half step down. 

I wrote the second guitar part first, so follow that with the first guitar part


Guitar 2 - Same for Chorus and other parts, you'll recognize it

Riff 1
Eb|---------|
Bb|---------|
Gb|-11/9\16-|
Db|---------|
Ab|-9-/7\14-|
Eb|-0--0-0--|

Riff 2

Eb|-----------------| 
Bb|-----------------|
Gb|-----------------|
Db|-2-4-2-6-4-2-4-2-|
Ab|-0-0-0-0-0-0-0-0-|
Eb|-----------------|

Riff 3 

Eb|-0-0-0-0-0-0--|
Bb|-9-7-9-7-9-10-|
Gb|-9-9-9-9-9-9--|
Db|-9-9-9-9-9-9--|
Ab|--------------|
Eb|--------------|


Riff 4  
Eb|--------------|
Bb|--------------|
Gb|----1---------|
Db|--2---4-2-4-2-|
Ab|-0-0--0-0-0-0-|
Eb|--------------|

____________________________________________________________________

------------------------------Guitar 1------------------------------
____________________________________________________________________


Guitar 1 - Intro and Ending riff. Play Riff 1

Eb|------------|
Bb|-5--0--0----|
Gb|-6--2--4----|
Db|-6--2--4--4-|
Ab|-4--0--2--4-|
Eb|----------2-|

Guitar 1 - Just play this part all the way until the Chorus,
           The Verse part is just bass though.Play Riff 2

Eb|---------|---------|
Bb|---------|---------|
Gb|-2--4----|-2--4----|
Db|-2--4--2-|-2--4--4-|
Ab|-0--2--2-|-0--2--4-|
Eb|-------0-|-------2-|

Guitar 1 - Chorus, Riff 1, Riff 3

Eb|------------------------|
Bb|------------------------|
Gb|-------4--6-8-9-13-11-9-|
Db|-6--6--4--6-8-9-13-11-9-|
Ab|-7--7--2--4-6-7-11-9--7-|
Eb|-5--4-------------------|

Guitar 1 - Part after Chorus, play repeatedly, Play Riff 4

Eb|---|-0--0--0--0-|
Bb|---|-0--0--0--0-|
Gb|---|-9--9--9--9-|
Db|-2-|-9--9--9--9-|
Ab|-0-|-7--9--7--9-|
Eb|---|-0--0--0--0-|

Guitar 1 - Interlude, palm mute half way through

Eb|---------------|
Bb|-9-----12------|
Gb|----9------9---|
Db|--11-11--11-11-|
Ab|---------------|
Eb|---------------|





Comments


Popular Asian Kung-Fu Generation tabs & chords
Haruka Kanata 3 Bass Tabs
Ngs Bass Tabs
Haruka Kanata 1 Chords
Haruka Kanata 4 Chords
Blue Train Tabs
Haruka Kanata Tabs
Kimi No Machi Made Tabs
Rewrite 2 Tabs
Haruka Kanata Ukulele
Korogaru Iwa Kimi Ni Asa Ga Furu Ukulele


Song lyrics



↑ Back to top | Tablatures and chords are parodies/interpretations of the original songs. You may use it for private study, scholarship, research or language learning purposes only
© 2014 AZChords.com Contact us | Privacy policy | DMCA | Add/correct tabs | Request tabs | Top 50 tabs