» » »

Rashinban Compass Tabs (ver.1)

Artists:  A B C D E F G H I J K L M N O P Q R S T U V W X Y Z # 

Rashinban Compass Tabs (ver.1)

Asian Kung-Fu Generation
Rating:
0/5 (0 votes)

Hard to play? Try these video lessons and learn fast.
                
Rashinban (compass), in Houkai Amplifier

Tuning: standard eBGDAE
Moderately fast rock

INTRO:

Gtr. 1

   D5       A5       E5      F#5
e|------------------------------------------|
B|------------------------------------------|
G|------------------------------------------| x1
D|-7---7-7-----------9--9-9---11-11-11-11---|
A|-5---5-5--7--7-7---7--7-7---9--9--9--9----|
E|----------5--5-5--------------------------|


     D5       A5       E5      F#5
|  e|----------------------------------------|
|  B|----------------------------------------|
|  G|----------------------------------------|
|  D|-7---7-7-----------9--9-9---11-11-11-11-|
|  A|-5---5-5--7--7-7---7--7-7---9--9--9--9--|
|  E|----------5--5-5------------------------|
|
|  Gtr. 2                                        x6
|  e|----------------------------------------|
|  B|----------------------------------------|
|  G|----------------------------------------|
|  D|-7-7-7--6-6-6-6--9-9-9-9--11-11-11-11---|
|  A|----------------------------------------|
|  E|----------------------------------------|


VERSE:

 A5~~~~              D5~~~~               F#5
shoudou de sutatteru kimi ga kudasu jajji sa
Em      D5 B5      A5     D5
yokubou ga tsumaru kanjouron

A5~~~~                D5~~~~              F#5
fumidasu sono ippo ga kimi ga kudasu jajji sa
Em           D5 B5    A5         D5~~~~
hohaba nanka wa ki ni shinai de ii

buttobasu kara

   A5        D5 C#5 A5         E5
e|-----------------------------------|
B|-----------------------------------|
G|-----------------------------------|
D|------------7--6-------------------|
A|-7-7-7-7-7--5--4--7-7-7-7-7---2~~--|
E|-5-5-5-5-5--------5-5-5-5-5---0~~--|

PRE-CHORUS:

Whit Fig. 1
aa, yokujou nitsumatte iru
kuru kuru to megutte iru

Fig. 1:

   F#5          F#5/F        F#5/E         B5
e|--------------------------------------------------|
B|--------------------------------------------------|
G|--------------------------------------------------|
D|-11-11-11-11--11-11-11-11--11-11-11-11---4-4-4-4--|
A|-9—-9-—9--9---8--8--8--8---7--7--7--7----2-2-2-2--|
E|--------------------------------------------------|


      D5
kitto sono hate
       A5
yuitsu, kibou no kage
     G5        Em
nani de mitasu no?


CHORUS: (Whit intro)

jounetsu no rashinban wa mirai wo itsu mo sash*te iru
hotsureru kumo no ito
kiresou demo tsutatte yuku


INTERLUDE

(Bass)
G|------------------------------------|
D|------------------------------------| x2
A|------------------0-0-0--2-2-2------|
E|-2-2-2-2--0-0-0-0-------------------|

Gtr

e|-------------------------------------|
B|-------------------------------------|
G|-------------------------------------| x2
D|-------------------2-2-2-2--4-4-4-4--|
A|-4-4-4-4--2-2-2-2--0-0-0-0--2-2-2-2--|
E|-2-2-2-2--0-0-0-0--------------------|


| e|-------------------------------------|
| B|-------------------------------------|
| G|-------------------------------------|
| D|-------------------2-2-2-2--4-4-4-4--|
| A|-4-4-4-4--2-2-2-2--0-0-0-0--2-2-2-2--|
| E|-2-2-2-2--0-0-0-0--------------------|
|                                            x2
| e|-------------------------------------|
| B|-7-7-7--5-5-5-5--4-4-4-4--0-0--------|
| G|-------------------------------------|
| D|-------------------------------------|
| A|-------------------------------------|
| E|-------------------------------------|


| e|-------------------------------------|
| B|-------------------------------------|
| G|-------------------------------------|
| D|-------------------2-2-2-2--4-4-4-4--|
| A|-4-4-4-4--2-2-2-2--0-0-0-0--2-2-2-2--|
| E|-2-2-2-2--0-0-0-0--------------------|
|                                            x4
| e|-------------------------------------|
| B|-7-7-7...7---5-5-5-7-7--9-9----------|
| G|-------------------------------------|
| D|-------------------------------------|
| A|-------------------------------------|
| E|-------------------------------------|


| e|---------------------------------|
| B|---------------------------------|
| G|---------------------------------|
| D|-------2-x-x-4-x-x-x-------------|
| A|-4-x-x-0-x-x-2-x-x-x-2-----------|
| E|-2-x-x---------------0-----------|
|                                           x4
| e|---------------------------------|
| B|-5-5-5-5-5-5--5--5/7-7-7---------|
| G|---------------------------------|
| D|---------------------------------|
| A|---------------------------------|
| E|---------------------------------|


CHORUS:

Whit Fig. 2

jounetsu no rashinban wa kimi no mune ni wa arimasu ka?
sono hari furuete
kuru tto mawatte mirai wo sasu

Fig. 2 (Bass)
G|------------------------------------|
D|------------------------------------|
A|------------------0-0-0--2-2-2------|
E|-2-2-2-2--0-0-0-0-------------------|


Whit Intro

jounetsu no rashinban wa mirai wo itsu mo sash*te iru
hotsureru kumo no ito
kiresou demo tsutatte yuku

kienai de touka
mirai wo itsu mo sash*te ite
aa, kimi no sono hari wa
mirai, kibou, mezash*te iru?


End… o en español FIN.

Pues ahi tienen, esta es de mis rolas favoritas de los AKG, es lo que se pudo, en la 
del intermedio, tal vez suene un poco raro pero si lo escuchan bien verán que si le anda llegando.
            
Hard to play? Try these video lessons and learn fast. | Correct




comments powered by Disqus
↑ Back to top | Tablatures and chords are parodies/interpretations of the original songs. You may use it for private study, scholarship, research or language learning purposes only