» » »

Asian Kung-Fu Generation, Powder Snow Tabs (ver.1)

Artists:  A B C D E F G H I J K L M N O P Q R S T U V W X Y Z # 

Powder Snow Tabs (ver.1)

Asian Kung-Fu Generation Tabs
Rating:
0/5 (0 votes)
Powder Snow lessons Tabs too difficult? Try these video lessons and learn fast
                

This song is also known as Konayuki, it's original name in japanese.

[++UPDATE:  Fixed the solo! Now I'm 100% sure.++]

Standard Tuning.


Intro
   Gtr.1
e|-----------------|-----------------|-----------------|
B|-----------------|-----------------|-----------------|
G|-4-4---------7-7-|-4-4---------7-7-|-4-4---------7-7-|
D|-4-4-5-5-7-7-7-7-|-4-4-5-5-7-7-7-7-|-4-4-5-5-7-7-7-7-|
A|-2-2-5-5-7-7-5-5-|-2-2-5-5-7-7-5-5-|-2-2-5-5-7-7-5-5-|
E|-----3-3-5-5-----|-----3-3-5-5-----|-----3-3-5-5-----|
 |
 | Gtr.2
e|-----------------|-----------------|-----------------|
B|-----------------|-----------------|-----------------|
G|-----------------|-----------------|-9-11-9----------|
D|-----------------|-----------------|--------12--9--12|
A|-----------------|-----------------|-----------------|
E|-----------------|-----------------|-----------------|


Verse
   Gtr.1
e|-----------------|-----------------|-----------------|-----------------|
B|-----------------|-----------------|-----------------|-----------------|
G|-4-4---------7-7-|-4-4---------7-7-|-4-4---------7-7-|-2---------------|
D|-4-4-5-5-7-7-7-7-|-4-4-5-5-7-7-7-7-|-4-4-5-5-7-7-7-7-|-2--let-ring-----|
A|-2-2-5-5-7-7-5-5-|-2-2-5-5-7-7-5-5-|-2-2-5-5-7-7-5-5-|-4---------------|
E|-----3-3-5-5-----|-----3-3-5-5-----|-----3-3-5-5-----|-----------------|
 |
 | Gtr.2
e|-----------------|-----------------|-----------------|-----------------|
B|-----------------|-----------------|-----------------|-----------------|
G|-9-11-9----------|-9-11-9----------|-9-11-9----------|-2---------------|
D|--------12--9--12|--------12--9--12|--------12--9--12|-2--let-ring-----|
A|-----------------|-----------------|-----------------|-4---------------|
E|-----------------|-----------------|-----------------|-----------------|


--Bass, drums & vocals playing--


Pre-chorus
   Gtr.1
e|-----------------|-----------------|-----------------|-----------------|
B|-----------------|-----------------|-----------------|-----------------|
G|------------7777-|-4-4---------7-7-|-4-4---------7-7-|-2---------------|
D|------------7777-|-4-4-5-5-7-7-7-7-|-4-4-5-5-7-7-7-7-|-2--let-ring-----|
A|------------5555-|-2-2-5-5-7-7-5-5-|-2-2-5-5-7-7-5-5-|-4---------------|
E|-----------------|-----3-3-5-5-----|-----3-3-5-5-----|-----------------|
 |
 | Gtr.2
e|-----------------|-----------------|-----------------|-----------------|
B|-----------------|-----------------|-----------------|-----------------|
G|-----------------|-9-11-9----------|-9-11-9----------|-2---------------|
D|-----------------|--------12--9--12|--------12--9--12|-2--let-ring-----|
A|-----------------|-----------------|-----------------|-4---------------|
E|-----------------|-----------------|-----------------|-----------------|


--Bass, drums & vocals playing--


Chorus
(I know there's a third guitar here that plays some sort of melody, but I haven't
figured it out yet)
   Gtr.2
e|-----------------|
B|-----------------|
G|------------7777-|
D|------------5555-|
A|------------5555-|
E|-----------------|

   Gtr.1 & Gtr.2
e|-----------------|-----------------|-----------------|-----------------|
B|-----------------|-----------------|-----------------|-----------------|
G|-----------------|-----------------|-----------------|-7-7-7-7-7-7-7-7-|
D|-5-5-5-5-5-5-5-5-|-4-4-4-4-4-4-4-4-|-2-2-2-2-2-2-2-2-|-5-5-5-5-5-5-5-5-|
A|-5-5-5-5-5-5-5-5-|-5-5-5-5-5-5-5-5-|-2-2-2-2-2-2-2-2-|-5-5-5-5-5-5-5-5-|
E|-3-3-3-3-3-3-3-3-|-2-2-2-2-2-2-2-2-|-0-0-0-0-0-0-0-0-|-----------------|

   Gtr.1 & Gtr.2
e|-----------------|-----------------|-----------------|-----------------|
B|-----------------|-----------------|-----------------|-----------------|
G|-----------------|-----------------|-----------------|-2-2-4-4-6-6-7-7-|
D|-5-5-5-5-5-5-5-5-|-4-4-4-4-4-4-4-4-|-2-2-2-2-2-2-2-2-|-2-2-4-4-6-6-7-7-|
A|-5-5-5-5-5-5-5-5-|-5-5-5-5-5-5-5-5-|-2-2-2-2-2-2-2-2-|-0-0-2-2-4-4-5-5-|
E|-3-3-3-3-3-3-3-3-|-2-2-2-2-2-2-2-2-|-0-0-0-0-0-0-0-0-|-----------------|

   Gtr.1 & Gtr.2
e|-----------------|-----------------|-----------------|-----------------|
B|-----------------|-----------------|-----------------|-----------------|
G|-4-4---------7-7-|-4-4---------7-7-|-4-4---------7-7-|-4-4---------7-7-|
D|-4-4-5-5-7-7-7-7-|-4-4-5-5-7-7-7-7-|-4-4-5-5-7-7-7-7-|-4-4-5-5-7-7-7-7-|
A|-2-2-5-5-7-7-5-5-|-2-2-5-5-7-7-5-5-|-2-2-5-5-7-7-5-5-|-2-2-5-5-7-7-5-5-|
E|-----3-3-5-5-----|-----3-3-5-5-----|-----3-3-5-5-----|-----3-3-5-5-----|

Solo 
   Gtr.1
e|-----------------|-----------------|-----------------|-----------------|
B|-----------------|-----------------|-----------------|-----------------|
G|-4-4---------7-7-|-4-4---------7-7-|-4-4---------7-7-|-4-4---------7-7-|
D|-4-4-5-5-7-7-7-7-|-4-4-5-5-7-7-7-7-|-4-4-5-5-7-7-7-7-|-4-4-5-5-7-7-7-7-|
A|-2-2-5-5-7-7-5-5-|-2-2-5-5-7-7-5-5-|-2-2-5-5-7-7-5-5-|-2-2-5-5-7-7-5-5-|
E|-----3-3-5-5-----|-----3-3-5-5-----|-----3-3-5-5-----|-----3-3-5-5-----|
 |
 | Gtr.2
e|-----------------|-----------------|-----------------|-----------------|
B|-----------------|-----------------|-----------------|-----------------|
G|-9-11-9----------|-9-11-9----------|-9-9-9-9^-7------|-9-9-9-9^h11-----|
D|--------12--9--12|--------12--9--12|------------12---|-----------------|
A|-----------------|-----------------|-----------------|-----------------|
E|-----------------|-----------------|-----------------|-----------------|

   Gtr.1
e|-----------------|-----------------|-----------------|-----------------|
B|-----------------|-----------------|-----------------|-----------------|
G|-4-4---------7-7-|-4-4---------7-7-|-4-4---------7-7-|-4-4---------7-7-|
D|-4-4-5-5-7-7-7-7-|-4-4-5-5-7-7-7-7-|-4-4-5-5-7-7-7-7-|-4-4-5-5-7-7-7-7-|
A|-2-2-5-5-7-7-5-5-|-2-2-5-5-7-7-5-5-|-2-2-5-5-7-7-5-5-|-2-2-5-5-7-7-5-5-|
E|-----3-3-5-5-----|-----3-3-5-5-----|-----3-3-5-5-----|-----3-3-5-5-----|
 |
 | Gtr.2
e|-----------------|-----------------|-----------------|
B|-----------------|------------10-10|-10-10-----------|
G|--9-11-9-11-9-11-|12-12-12-12------|-----------------|
D|-----------------|-----------------|-----------------|
A|-----------------|-----------------|-----------------|
E|-----------------|-----------------|-----------------|

   Gtr.1
e|-----------------------------------------|
B|-----------------------------------------|
G|-----------------------------------------|
D|-9-9-9-9-11-11-11-11---------------------|
A|-7-7-7-7-9--9--9--9--9-9-9-9-12-12-12-12-|
E|---------------------7-7-7-7-10-10-10-10-|
     |.....   |.......   |.....   |.........palm mute

Repeat Chorus, and then:

Outro
   Gtr.1
e|---------------------------|
B|-4--6--4-2-------2---------|
G|-2--4--2-0--4-44-0---------|    \
D|------------2-22-----------|     \
A|---------------------------|      \
 |                           \ Keep playing this until the end.
 | Gtr.2                     /
e|---------------------------|     /
B|-9-11-9--------------------|    /
G|-------12--9-9-9-12--------|   /
D|---------------------------|
A|---------------------------|
E|---------------------------|
            

comments powered by Disqus
↑ Back to top | Asian Kung-Fu Generation Tabs for Powder Snow. Lyrics for acoustic guitar and electric guitar. Tablatures and chords are parodies/interpretations of the original songs. You may use it for private study, scholarship, research or language learning purposes only