>
 >
Kimi To Iu Hana

Kimi To Iu Hana Guitar Tabs

Asian Kung-Fu Generation - Kimi To Iu Hana chords, tabs, tablatures, lyrics

Guitar lessons | Add/correct | Request | Top 50 tabs Artists:  A B C D E F G H I J K L M N O P Q R S T U V W X Y Z 0-9

Kimi To Iu Hana Guitar Tabs – Asian Kung-Fu Generation

CD, Sheet music, Poster

Do you like Kimi To Iu Hana? Share with your friends now
Bass TabsChordsTabsUkulele
Kimi to Iu Hana
Asian Kung-Fu Generation

Toshiro

Tuning:
Lead Guitar: E-A-D-G-B-E
Rhythm Guitar: E-A-D-G-B-E


LEAD GUITAR (All Distorted)

Intro
|----------------------------------------|
|----------------------------------------|
|-9/11-11--11--9/11-11--11--9/11-11------|
|-x----x---x---x----x---x---x----x--(x2)-|
|-7/9--9---9---7/9--9---9---7/9--9-------|
|----------------------------------------|

|--------------------------------|
|--------------------------------|
|-6-x-x-4-x-6-x-9-x-9-x-6--6-6-6-|
|-x-x-x-x-x-x-x-x-x-x-x-x--x-x-x-|
|-4-x-x-2-x-4-x-7-x-7-x-4--4-4-4-|
|--------------------------------|

|-------------------------------------|
|-------------------------------------|
|-9/11-11--11--9/11-11--11--9/11-11---|
|-x----x---x---x----x---x---x----x----|
|-7/9--9---9---7/9--9---9---7/9--9----|
|-------------------------------------|

|----------------------------------------|
|----------------------------------------|
|-9/11-11--11--9/11-11--11--9/11-11------|
|-x----x---x---x----x---x---x----x--(x2)-|
|-7/9--9---9---7/9--9---9---7/9--9-------|
|----------------------------------------|

|--------------------------------|
|--------------------------------|
|-6-x-x-4-x-6-x-9-x-9-x-6--6-6-6-|
|-x-x-x-x-x-x-x-x-x-x-x-x--x-x-x-|
|-4-x-x-2-x-4-x-7-x-7-x-4--4-4-4-|
|--------------------------------|

|-------------------------------------|
|-------------------------------------|
|-9/11-11--11--9/11-11--11--9/11-11-\-|
|-x----x---x---x----x---x---x----x----|
|-7/9--9---9---7/9--9---9---7/9--9--\-|
|-------------------------------------|

Verse (Nothing till halfway through)
|-----------------------------------------------------------------|
|-----------------------------------------------------------------|
|-----------------------------------------------------------------|
|---------------------------------7-7-7-7-7-7-7-7-7-7-7-7-7-7-7-7-|
|-4-4-4-4-4-4-4-4-4-4-4-4-4-4-4-4-5-5-5-5-5-5-5-5-5-5-5-5-5-5-5-5-|
|-2-2-2-2-2-2-2-2-2-2-2-2-2-2-2-2---------------------------------|
pm................................................................

|-----------------------------------------------------------------|
|-----------------------------------------------------------------|
|-----------------------------------------------------------------|
|-9-9-9-9-9-9-9-9-9-9-9-9-9-9-9-9---------------------------------|
|-7-7-7-7-7-7-7-7-7-7-7-7-7-7-7-7-7-7-7-7-7-7-7-7-7-7-7-7-7-7-7-7-|
|---------------------------------5-5-5-5-5-5-5-5-4-4-4-4-4-4-4-4-|
pm................................................................

Transition
|---------------------------------------------------------|
|---------------------------------------------------------|
|-7--7-7-7-7-7-7--7--7--7-7-7-9--9-9-9-9-9-9--9--9--9-9-9-|
|-7--7-7-7-7-7-7--7--7--7-7-7-9--9-9-9-9-9-9--9--9--9-9-9-|
|-5--5-5-5-5-5-5--5--5--5-5-5-7--7-7-7-7-7-7--7--7--7-7-7-|
|---------------------------------------------------------|

Rhythm Figure
|----------------------------------------|
|----------------------------------------|
|-9/11-11--11--9/11-11--11--9/11-11------|
|-x----x---x---x----x---x---x----x--(x2)-|
|-7/9--9---9---7/9--9---9---7/9--9-------|
|----------------------------------------|

|--------------------------------|
|--------------------------------|
|-6-x-x-4-x-6-x-9-x-9-x-6--6-6-6-|
|-x-x-x-x-x-x-x-x-x-x-x-x--x-x-x-|
|-4-x-x-2-x-4-x-7-x-7-x-4--4-4-4-|
|--------------------------------|

|-------------------------------------|
|-------------------------------------|
|-9/11-11--11--9/11-11--11--9/11-11-\-|
|-x----x---x---x----x---x---x----x----|
|-7/9--9---9---7/9--9---9---7/9--9--\-|
|-------------------------------------|

Verse (Nothing till halfway through)
|-----------------------------------------------------------------|
|-----------------------------------------------------------------|
|-----------------------------------------------------------------|
|---------------------------------7-7-7-7-7-7-7-7-7-7-7-7-7-7-7-7-|
|-4-4-4-4-4-4-4-4-4-4-4-4-4-4-4-4-5-5-5-5-5-5-5-5-5-5-5-5-5-5-5-5-|
|-2-2-2-2-2-2-2-2-2-2-2-2-2-2-2-2---------------------------------|
pm................................................................

|-----------------------------------------------------------------|
|-----------------------------------------------------------------|
|-----------------------------------------------------------------|
|-9-9-9-9-9-9-9-9-9-9-9-9-9-9-9-9---------------------------------|
|-7-7-7-7-7-7-7-7-7-7-7-7-7-7-7-7-7-7-7-7-7-7-7-7-7-7-7-7-7-7-7-7-|
|---------------------------------5-5-5-5-5-5-5-5-4-4-4-4-4-4-4-4-|
pm................................................................

Transition (x2)
|---------------------------------------------------------|
|---------------------------------------------------------|
|-7--7-7-7-7-7-7--7--7--7-7-7-9--9-9-9-9-9-9--9--9--9-9-9-|
|-7--7-7-7-7-7-7--7--7--7-7-7-9--9-9-9-9-9-9--9--9--9-9-9-|
|-5--5-5-5-5-5-5--5--5--5-5-5-7--7-7-7-7-7-7--7--7--7-7-7-|
|---------------------------------------------------------|

Chorus (x2, nothing until 2nd time)
|-------------------------------------------------|
|-------------------------------------------------|
|-14-14-14-14-14-14-14-14-16-16-16-16-16-16-16-16-|
|-x--x--x--x--x--x--x--x--x--x--x--x--x--x--x--x--|
|-12-12-12-12-12-12-12-12-14-14-14-14-14-14-14-14-|
|-------------------------------------------------|

|-----------------------------------------|
|-----------------------------------------|
|-14-14-14-14-14-14-14-14-9-9-9-9-9-9-9-9-|
|-x--x--x--x--x--x--x--x--x-x-x-x-x-x-x-x-|
|-12-12-12-12-12-12-12-12-7-7-7-7-7-7-7-7-|
|-----------------------------------------|

|-------------------------------------------------|
|-------------------------------------------------|
|-14-14-14-14-14-14-14-14-16-16-16-16-16-16-16-16-|
|-x--x--x--x--x--x--x--x--x--x--x--x--x--x--x--x--|
|-12-12-12-12-12-12-12-12-14-14-14-14-14-14-14-14-|
|-------------------------------------------------|

|-------------------------------------------------|
|-------------------------------------------------|
|-18-18-18-18-18-18-18-18-19-19-19-19-19-19-19-19-|
|-x--x--x--x--x--x--x--x--x--x--x--x--x--x--x--x--|
|-16-16-16-16-16-16-16-16-17-17-17-17-17-17-17-17-|
|-------------------------------------------------|

Pre-Solo (x2, no slide after 9 on 2nd time)
|-----------------|
|-----------------|
|-6-\-7-\-9-----\-|
|-----------------|
|-----------------|
|-----------------|

Solo
|----------------------------------------|
|-14-------14----------------------------|
|-14-------14---------14-----------14----|
|----16-16----16-16---14--16-14-16-14-16-|
|-------------------------16-14-16----16-|
|----------------------------------------|
pm   .....    .....

|---------------------------------------------------------|
|-14-------14-------14---14-------------14-14-------------|
|-14-------14-------14---16b(18)---b(18)16-16b(18)r-14----|
|----16-16----16-16------------------------------------16-|
|---------------------------------------------------------|
|---------------------------------------------------------|
pm   .....    .....

|---------------------------------------------|
|-14-------14---------------------------------|
|-14-------14---------14---------------14-----|
|----16-16----16-16---14---------14-16-----16-|
|--------------------------14-16--------------|
|---------------------------------------------|
pm   .....    .....

|-----------------------------------|
|-14-------14-------14-\------------|
|-14-------14-------14-\-----14-14--|
|----16-16----16-16----------x--x---|
|----------------------------12-12--|
|-----------------------------------|
pm   .....    .....

|-------------------------------------------|
|-------------------------------------------|
|-9/11-11--11-11-14-14-9/11-11--11-11-11-11-|
|-x----x---x--x--x--x--x----x---x--x--x--x--|
|-7/9--9---9--9--12-12-7/9--9---9--9--9--9--|
|-------------------------------------------|

|----------------------------|
|----------------------------|
|-6--6\4--6--9--9-9--9-9-9-9-|
|-x--x----x--x--x-x--x-x-x-x-|
|-4--4\2--4--7--7-7--7-7-7-7-|
|----------------------------|

|-----------------------------------|
|-----------------------------------|
|-14--13-14--13--14--13--14--16-16--|
|-x---x--x---x---x---x---x---x--x---|
|-12--11-12--11--12--11--12--14-14--|
|-----------------------------------|

|------------------------------------|
|------------------------------------|
|-9/11-11--11--9/11-11--11--9/11-14--|
|-x----x---x---x----x---x---x----x---|
|-7/9--9---9---7/9--9---9---7/9--12--|
|------------------------------------|

|-------------------------------------------|
|-------------------------------------------|
|-9/11-11--11-11-14-14-9/11-11--11-11-11-11-|
|-x----x---x--x--x--x--x----x---x--x--x--x--|
|-7/9--9---9--9--12-12-7/9--9---9--9--9--9--|
|-------------------------------------------|

|----------------------------|
|----------------------------|
|-6--6\4--6--9--9-9--9-9-9-9-|
|-x--x----x--x--x-x--x-x-x-x-|
|-4--4\2--4--7--7-7--7-7-7-7-|
|----------------------------|

|---------------------------------------|
|---------------------------------------|
|-14--13-14--13--13-14-14-13-14--16-16--|
|-x---x--x---x---x--x--x--x--x---x--x---|
|-12--11-12--11--11-12-12-11-12--14-14--|
|---------------------------------------|

|------------------------------------|
|------------------------------------|
|-9/11-11--11--9/11-11--11--9/11-11\-|
|-x----x---x---x----x---x---x----x---|
|-7/9--9---9---7/9--9---9---7/9--9-\-|
|------------------------------------|

Transition (x2)
|---------------------------------------------------------|
|---------------------------------------------------------|
|-7--7-7-7-7-7-7--7--7--7-7-7-9--9-9-9-9-9-9--9--9--9-9-9-|
|-7--7-7-7-7-7-7--7--7--7-7-7-9--9-9-9-9-9-9--9--9--9-9-9-|
|-5--5-5-5-5-5-5--5--5--5-5-5-7--7-7-7-7-7-7--7--7--7-7-7-|
|---------------------------------------------------------|

Chorus (x4, nothing until 2nd time)
|-------------------------------------------------|
|-------------------------------------------------|
|-14-14-14-14-14-14-14-14-16-16-16-16-16-16-16-16-|
|-x--x--x--x--x--x--x--x--x--x--x--x--x--x--x--x--|
|-12-12-12-12-12-12-12-12-14-14-14-14-14-14-14-14-|
|-------------------------------------------------|

|-----------------------------------------|
|-----------------------------------------|
|-14-14-14-14-14-14-14-14-9-9-9-9-9-9-9-9-|
|-x--x--x--x--x--x--x--x--x-x-x-x-x-x-x-x-|
|-12-12-12-12-12-12-12-12-7-7-7-7-7-7-7-7-|
|-----------------------------------------|

|-------------------------------------------------|
|-------------------------------------------------|
|-14-14-14-14-14-14-14-14-16-16-16-16-16-16-16-16-|
|-x--x--x--x--x--x--x--x--x--x--x--x--x--x--x--x--|
|-12-12-12-12-12-12-12-12-14-14-14-14-14-14-14-14-|
|-------------------------------------------------|

|-------------------------------------------------|
|-------------------------------------------------|
|-18-18-18-18-18-18-18-18-19-19-19-19-19-19-19-19-|
|-x--x--x--x--x--x--x--x--x--x--x--x--x--x--x--x--|
|-16-16-16-16-16-16-16-16-17-17-17-17-17-17-17-17-|
|-------------------------------------------------|

Outro
|-------------------------------------------------|
|-------------------------------------------------|
|-11-11-11-11-11-11-18-18-16-16-16-16-16-16-16-16-|
|-x--x--x--x--x--x--x--x--x--x--x--x--x--x--x--x--|
|-9--9--9--9--9--9--16-16-14-14-14-14-14-14-14-14-|
|-------------------------------------------------|

|-------------------------------------------------|
|-------------------------------------------------|
|-11-11-11-11-11-11-18-18-16-16-16-14-14-14-14-14-|
|-x--x--x--x--x--x--x--x--x--x--x--x--x--x--x--x--|
|-9--9--9--9--9--9--16-16-14-14-14-12-12-12-12-12-|
|-------------------------------------------------|

|-------------------------------------------------|
|-------------------------------------------------|
|-11-11-11-11-11-11-18-18-16-16-16-16-16-16-16-16-|
|-x--x--x--x--x--x--x--x--x--x--x--x--x--x--x--x--|
|-9--9--9--9--9--9--16-16-14-14-14-14-14-14-14-14-|
|-------------------------------------------------|

|-------------------------------------------------|
|-------------------------------------------------|
|-18-18-18-18-18-18-18-18-19-19-19-19-19-19-19-19-|
|-x--x--x--x--x--x--x--x--x--x--x--x--x--x--x--x--|
|-16-16-16-16-16-16-16-16-17-17-17-17-17-17-17-17-|
|-------------------------------------------------|

|-------------------------------------------------|
|-------------------------------------------------|
|-11-11-11-11-11-11-18-18-16-16-16-16-16-16-16-16-|
|-x--x--x--x--x--x--x--x--x--x--x--x--x--x--x--x--|
|-9--9--9--9--9--9--16-16-14-14-14-14-14-14-14-14-|
|-------------------------------------------------|

|-------------------------------------------------|
|-------------------------------------------------|
|-11-11-11-11-11-11-18-18-16-16-16-14-14-16-16-16-|
|-x--x--x--x--x--x--x--x--x--x--x--x--x--x--x--x--|
|-9--9--9--9--9--9--16-16-14-14-14-12-12-14-14-14-|
|-------------------------------------------------|

|-------------------------------------------------|
|-------------------------------------------------|
|-11-11-11-11-11-11-18-18-16-16-16-16-16-16-16-16-|
|-x--x--x--x--x--x--x--x--x--x--x--x--x--x--x--x--|
|-9--9--9--9--9--9--16-16-14-14-14-14-14-14-14-14-|
|-------------------------------------------------|

|-------------------------------------------------|
|-------------------------------------------------|
|-18-18-18-18-18-18-18-18-19-19-19-19-19-19-19-19-|
|-x--x--x--x--x--x--x--x--x--x--x--x--x--x--x--x--|
|-16-16-16-16-16-16-16-16-17-17-17-17-17-17-17-17-|
|-------------------------------------------------|

|-------------------------------------------------|
|-------------------------------------------------|
|-11-11-11-11-11-11-18-18-16-16-16-16-16-16-16-16-|
|-x--x--x--x--x--x--x--x--x--x--x--x--x--x--x--x--|
|-9--9--9--9--9--9--16-16-14-14-14-14-14-14-14-14-|
|-------------------------------------------------|

|-------------------------------------------------|
|-------------------------------------------------|
|-11-11-11-11-11-11-18-18-16-16-16-14-14-16-16-16-|
|-x--x--x--x--x--x--x--x--x--x--x--x--x--x--x--x--|
|-9--9--9--9--9--9--16-16-14-14-14-12-12-14-14-14-|
|-------------------------------------------------|

|-------------------------------------------------|
|-------------------------------------------------|
|-11-11-11-11-11-11-18-18-16-16-16-16-16-16-16-16-|
|-x--x--x--x--x--x--x--x--x--x--x--x--x--x--x--x--|
|-9--9--9--9--9--9--16-16-14-14-14-14-14-14-14-14-|
|-------------------------------------------------|

|-------------------------------------------------|
|-------------------------------------------------|
|-18-18-18-18-18-18-18-18-19-19-19-19-19-19-19-19-|
|-x--x--x--x--x--x--x--x--x--x--x--x--x--x--x--x--|
|-16-16-16-16-16-16-16-16-17-17-17-17-17-17-17-17-|
|-------------------------------------------------|

|----------------------|
|----------------------|
|-21-----19-----18-----|
|-x------x------x------|
|-19-----17-----16-----|
|----------------------|


RHYTHM GUITAR (All Distorted)

Intro (x2)
|-----------------------------------------------------------------|
|-----------------------------------------------------------------|
|-----------------------------------------------------------------|
|---------------------------------7-7-7-7-7-7-7-7-7-7-7-7-7-7-7-7-|
|-4-4-4-4-4-4-4-4-4-4-4-4-4-4-4-4-5-5-5-5-5-5-5-5-5-5-5-5-5-5-5-5-|
|-2-2-2-2-2-2-2-2-2-2-2-2-2-2-2-2---------------------------------|
pm................................................................

|-----------------------------------------------------------------|
|-----------------------------------------------------------------|
|-----------------------------------------------------------------|
|-9-9-9-9-9-9-9-9-9-9-9-9-9-9-9-9---------------------------------|
|-7-7-7-7-7-7-7-7-7-7-7-7-7-7-7-7-7-7-7-7-7-7-7-7-7-7-7-7-7-7-7-7-|
|---------------------------------5-5-5-5-5-5-5-5-4-4-4-4-4-4-4-4-|
pm................................................................

Verse
|-------------|
|-------------|
|-------------|
|---NOTHING---|
|-------------|
|-------------|

Transition
|-------------|
|-------------|
|-------------|
|---NOTHING---|
|-------------|
|-------------|

Rhythm Figure
|-----------------------------------------------------------------|
|-----------------------------------------------------------------|
|-----------------------------------------------------------------|
|---------------------------------7-7-7-7-7-7-7-7-7-7-7-7-7-7-7-7-|
|-4-4-4-4-4-4-4-4-4-4-4-4-4-4-4-4-5-5-5-5-5-5-5-5-5-5-5-5-5-5-5-5-|
|-2-2-2-2-2-2-2-2-2-2-2-2-2-2-2-2---------------------------------|
pm................................................................

|-----------------------------------------------------------------|
|-----------------------------------------------------------------|
|-----------------------------------------------------------------|
|-9-9-9-9-9-9-9-9-9-9-9-9-9-9-9-9---------------------------------|
|-7-7-7-7-7-7-7-7-7-7-7-7-7-7-7-7-7-7-7-7-7-7-7-7-7-7-7-7-7-7-7-7-|
|---------------------------------5-5-5-5-5-5-5-5-4-4-4-4-4-4-4-4-|
pm................................................................

Verse
|-------------|
|-------------|
|-------------|
|---NOTHING---|
|-------------|
|-------------|

Transition
|-------------|
|-------------|
|-------------|
|---NOTHING---|
|-------------|
|-------------|

Chorus (x3)
|-----------------------------------------------------------------|
|-----------------------------------------------------------------|
|-7-7-7-7-7-7-7-7-6-6-6-6-6-6-6-6---------------------------------|
|-7-7-7-7-7-7-7-7-7-7-7-7-7-7-7-7-9-9-9-9-9-9-9-9-7-7-7-7-7-7-7-7-|
|-5-5-5-5-5-5-5-5-4-4-4-4-4-4-4-4-9-9-9-9-9-9-9-9-7-7-7-7-7-7-7-7-|
|---------------------------------7-7-7-7-7-7-7-7-5-5-5-5-5-5-5-5-|

|-----------------------------------------------------------------|
|-----------------------------------------------------------------|
|-7-7-7-7-7-7-7-7-6-6-6-6-6-6-6-6-9-9-9-9-9-9-9-9-----------------|
|-7-7-7-7-7-7-7-7-7-7-7-7-7-7-7-7-9-9-9-9-9-9-9-9-7-7-7-7-7-7-7-7-|
|-5-5-5-5-5-5-5-5-4-4-4-4-4-4-4-4-7-7-7-7-7-7-7-7-7-7-7-7-7-7-7-7-|
|-------------------------------------------------5-5-5-5-5-5-5-5-|

Pre-Solo (x2)
|--------------|
|--------------|
|--------------|
|-11--9--7-----|
|-9---7--5-----|
|--------------|

Solo
|-----------------------------------------|
|-----------------------------------------|
|-----------------------------------------|
|-11-11-11-9-9-9-7-7-7-7-7-7-7-7-7-7-(x3)-|
|-9--9--9--7-7-7-5-5-5-5-5-5-5-5-5-5------|
|-----------------------------------------|
pm  ......   ...   ...   ...   ......

|-------------------|
|-------------------|
|-------------------|
|-11-11-11-9-9-9-7--|
|-9--9--9--7-7-7-5--|
|-------------------|
pm  ......   ...

|-----------------------------------------------------------------|
|-----------------------------------------------------------------|
|-----------------------------------------------------------------|
|---------------------------------7-7-7-7-7-7-7-7-7-7-7-7-7-7-7-7-|
|-4-4-4-4-4-4-4-4-4-4-4-4-4-4-4-4-5-5-5-5-5-5-5-5-5-5-5-5-5-5-5-5-|
|-2-2-2-2-2-2-2-2-2-2-2-2-2-2-2-2---------------------------------|
pm................................................................

|-----------------------------------------------------------------|
|-----------------------------------------------------------------|
|-----------------------------------------------------------------|
|-9-9-9-9-9-9-9-9-9-9-9-9-9-9-9-9---------------------------------|
|-7-7-7-7-7-7-7-7-7-7-7-7-7-7-7-7-7-7-7-7-7-7-7-7-7-7-7-7-7-7-7-7-|
|---------------------------------5-5-5-5-5-5-5-5-4-4-4-4-4-4-4-4-|
pm................................................................

|-----------------------------------------------------------------|
|-----------------------------------------------------------------|
|-----------------------------------------------------------------|
|---------------------------------7-7-7-7-7-7-7-7-7-7-7-7-7-7-7-7-|
|-4-4-4-4-4-4-4-4-4-4-4-4-4-4-4-4-5-5-5-5-5-5-5-5-5-5-5-5-5-5-5-5-|
|-2-2-2-2-2-2-2-2-2-2-2-2-2-2-2-2---------------------------------|
pm................................................................

|-----------------------------------------------------------------|
|-----------------------------------------------------------------|
|-----------------------------------------------------------------|
|-9-9-9-9-9-9-9-9-9-9-9-9-9-9-9-9---------------------------------|
|-7-7-7-7-7-7-7-7-7-7-7-7-7-7-7-7-7-7-7-7-7-7-7-7-7-7-7-7-7-7-7-7-|
|---------------------------------5-5-5-5-5-5-5-5-4-4-4-4-4-4-4-4-|
pm................................................................

Transition
|-------------|
|-------------|
|-------------|
|---NOTHING---|
|-------------|
|-------------|

Chorus (x5)
|-----------------------------------------------------------------|
|-----------------------------------------------------------------|
|-7-7-7-7-7-7-7-7-6-6-6-6-6-6-6-6---------------------------------|
|-7-7-7-7-7-7-7-7-7-7-7-7-7-7-7-7-9-9-9-9-9-9-9-9-7-7-7-7-7-7-7-7-|
|-5-5-5-5-5-5-5-5-4-4-4-4-4-4-4-4-9-9-9-9-9-9-9-9-7-7-7-7-7-7-7-7-|
|---------------------------------7-7-7-7-7-7-7-7-5-5-5-5-5-5-5-5-|

|-----------------------------------------------------------------|
|-----------------------------------------------------------------|
|-7-7-7-7-7-7-7-7-6-6-6-6-6-6-6-6-9-9-9-9-9-9-9-9-----------------|
|-7-7-7-7-7-7-7-7-7-7-7-7-7-7-7-7-9-9-9-9-9-9-9-9-7-7-7-7-7-7-7-7-|
|-5-5-5-5-5-5-5-5-4-4-4-4-4-4-4-4-7-7-7-7-7-7-7-7-7-7-7-7-7-7-7-7-|
|-------------------------------------------------5-5-5-5-5-5-5-5-|

Outro
|-----------------------------------------------------------------|
|-----------------------------------------------------------------|
|-7-7-7-7-7-7-7-7-6-6-6-6-6-6-6-6---------------------------------|
|-7-7-7-7-7-7-7-7-7-7-7-7-7-7-7-7-9-9-9-9-9-9-9-9-7-7-7-7-7-7-7-7-|
|-5-5-5-5-5-5-5-5-4-4-4-4-4-4-4-4-9-9-9-9-9-9-9-9-7-7-7-7-7-7-7-7-|
|---------------------------------7-7-7-7-7-7-7-7-5-5-5-5-5-5-5-5-|

|-----------------------------------------------------------------|
|-----------------------------------------------------------------|
|-7-7-7-7-7-7-7-7-6-6-6-6-6-6-6-6-9-9-9-9-9-9-9-9-----------------|
|-7-7-7-7-7-7-7-7-7-7-7-7-7-7-7-7-9-9-9-9-9-9-9-9-7-7-7-7-7-7-7-7-|
|-5-5-5-5-5-5-5-5-4-4-4-4-4-4-4-4-7-7-7-7-7-7-7-7-7-7-7-7-7-7-7-7-|
|-------------------------------------------------5-5-5-5-5-5-5-5-|

|-----------------------------------------------------------------|
|-----------------------------------------------------------------|
|-7-7-7-7-7-7-7-7-6-6-6-6-6-6-6-6---------------------------------|
|-7-7-7-7-7-7-7-7-7-7-7-7-7-7-7-7-9-9-9-9-9-9-9-9-7-7-7-7-7-7-7-7-|
|-5-5-5-5-5-5-5-5-4-4-4-4-4-4-4-4-9-9-9-9-9-9-9-9-7-7-7-7-7-7-7-7-|
|---------------------------------7-7-7-7-7-7-7-7-5-5-5-5-5-5-5-5-|

|-----------------------------------------------------------------|
|-----------------------------------------------------------------|
|-7-7-7-7-7-7-7-7-6-6-6-6-6-6-6-6-9-9-9-9-9-9-9-9-----------------|
|-7-7-7-7-7-7-7-7-7-7-7-7-7-7-7-7-9-9-9-9-9-9-9-9-7-7-7-7-7-7-7-7-|
|-5-5-5-5-5-5-5-5-4-4-4-4-4-4-4-4-7-7-7-7-7-7-7-7-7-7-7-7-7-7-7-7-|
|-------------------------------------------------5-5-5-5-5-5-5-5-|

|-----------------------------------------------------------------|
|-----------------------------------------------------------------|
|-7-7-7-7-7-7-7-7-6-6-6-6-6-6-6-6---------------------------------|
|-7-7-7-7-7-7-7-7-7-7-7-7-7-7-7-7-9-9-9-9-9-9-9-9-7-7-7-7-7-7-7-7-|
|-5-5-5-5-5-5-5-5-4-4-4-4-4-4-4-4-9-9-9-9-9-9-9-9-7-7-7-7-7-7-7-7-|
|---------------------------------7-7-7-7-7-7-7-7-5-5-5-5-5-5-5-5-|

|-----------------------------------------------------------------|
|-----------------------------------------------------------------|
|-7-7-7-7-7-7-7-7-6-6-6-6-6-6-6-6-9-9-9-9-9-9-9-9-----------------|
|-7-7-7-7-7-7-7-7-7-7-7-7-7-7-7-7-9-9-9-9-9-9-9-9-7-7-7-7-7-7-7-7-|
|-5-5-5-5-5-5-5-5-4-4-4-4-4-4-4-4-7-7-7-7-7-7-7-7-7-7-7-7-7-7-7-7-|
|-------------------------------------------------5-5-5-5-5-5-5-5-|

|-------------------|
|-------------------|
|-------------------|
|-4-----2-----7-----|
|-4-----2-----7-----|
|-2-----0-----5-----|





Comments


Popular Asian Kung-Fu Generation tabs & chords
Flash Back 2 Bass Tabs
Ngs Bass Tabs
Rewrite Chords
24 Ji Tabs
Blue Train Tabs
Kimi No Machi Made Tabs
Ngs Tabs
Kimi To Iu Hana Ukulele
Korogaru Iwa Kimi Ni Asa Ga Furu Ukulele
Rewrite Ukulele


Song lyrics



↑ Back to top | Tablatures and chords are parodies/interpretations of the original songs. You may use it for private study, scholarship, research or language learning purposes only
© 2014 AZChords.com Contact us | Privacy policy | DMCA | Add/correct tabs | Request tabs | Top 50 tabs