>
 >
Kimi No Machi Made

Kimi No Machi Made Guitar Tabs

Asian Kung-Fu Generation - Kimi No Machi Made chords, tabs, tablatures, lyrics

Guitar lessons | Add/correct | Request | Top 50 tabs Artists:  A B C D E F G H I J K L M N O P Q R S T U V W X Y Z 0-9

Kimi No Machi Made Guitar Tabs – Asian Kung-Fu Generation

CD, Sheet music, Poster

Do you like Kimi No Machi Made? Share with your friends now
Tabs
Kimi no Machi Made
Asian Kung-Fu Generation

Toshiro

Tuning:
Lead Guitar: E-A-D-G-B-E
Rhythm Guitar: E-A-D-G-B-E

------------------------------------------------------

LEAD GUITAR

Intro (x8, Clean)
|---------------------------9-----|
|-6---7---9---7---6---7---9---9-7-|
|---6---6---6---6---6---6---------|
|---------------------------------|
|---------------------------------|
|---------------------------------|

Verse (x8, Clean)
|--------------------|
|-6----------6---7---|
|-------6--6---6---6-|
|--------------------|
|--------------------|
|--------------------|

Chorus (x4, Distorted)
|-------13------14------13------|
|---14------14------14------14--|
|-------------------------------|
|-------------------------------|
|-------------------------------|
|-------------------------------|

Verse (Clean)
|-13--------13----13----14---------|---------------------------9----------|
|--------14----14----14----14------|-6---7---9---7---6---7---9---9-7------|
|-----------------------------(x4)-|---6---6---6---6---6---6---------(x4)-|
|----------------------------------|--------------------------------------|
|----------------------------------|--------------------------------------|
|----------------------------------|--------------------------------------|
                                   pm.....................................

Chorus (x8, Distorted)
|-------13------14------13------|
|---14------14------14------14--|
|-------------------------------|
|-------------------------------|
|-------------------------------|
|-------------------------------|

Rhythm Figure (Distorted)
|--------------------------------------------|
|--------------------------------------------|
|-------------6-----------------6------6-----|
|-4-4-4-4-4---6-----6-6-6-6-6---6---6-----6--|
|-4-4-4-4-4---4-----6-6-6-6-6---4------------|
|-2-2-2-2-2---------4-4-4-4-4----------------|

|------------------------------------------13-----14-----13--|
|--------------------7------------------14-----14-----14-----|
|-------------6---6-----6------------------------------------|
|-4-4-4-4-4---6-------------6-6-6-6-6------------------------|
|-4-4-4-4-4---4-------------6-6-6-6-6------------------------|
|-2-2-2-2-2-----------------4-4-4-4-4------------------------|

Solo (Distorted)
|------------------------------------------|
|-9/11---9---7-9-7-6-----------------------|
|----------------------6--6-6--6--6-6--6-6-|
|------------------------------------------|
|------------------------------------------|
|------------------------------------------|

|----------------------------------------------|
|----------------------------------------------|
|-8-------10-------8-------10-------8-------10-|
|---11-11----11-11---11-11----11-11---11-11----|
|----------------------------------------------|
|----------------------------------------------|
pm........  ...............  ...............

|----------------------------------------|
|----------------------------------------|
|-------8-------10-------8-------10--6-6-|
|-11-11---11-11----11-11---11-11-11------|
|----------------------------------------|
|----------------------------------------|
pm..............  .......

|------------------------------------|
|-6/9---7--6-------------------------|
|------------6--8---10-10^--6-6------|
|---------------10--11-11-------(x2)-|
|------------------------------------|
|------------------------------------|

|------------------------------------------|
|------------------------------------------|
|----------10------------10-----10--11-10--|
|-11-10-11----11-10-8-10-----11------------|
|------------------------------------------|
|------------------------------------------|
pm.........  ............   ....

|----13-----13-----16-----14-----13-\-|
|-14-----14-----14-----14-----14----\-|
|-------------------------------------|
|-------------------------------------|
|-------------------------------------|
|-------------------------------------|

Interlude (Distorted)
|-----------------------------------------------------------------|
|-----------------------------------------------------------------|
|-----------------------------------------------------------------|
|-6-6-6-6-6-6-6-6-7-7-7-7-7-7-7-7-8-8-8-8-8-8-8-8-7-7-7-7-7-7-7-7-|
|-----------------------------------------------------------------|
|-----------------------------------------------------------------|
pm................................................................

|-----------------------------------------------------------------|
|-----------------------------------------------------------------|
|-----------------------------------------------------------------|
|-4-4-4-4-4-4-4-4-3-3-4-4-4-4-4-4-4-4-4-4-4-4-4-4-3-3-4-4-4-4-4-4-|
|-----------------------------------------------------------------|
|-----------------------------------------------------------------|
pm................................................................

|-----------------------------------------------------------------|
|-----------------------------------------------------------------|
|-----------------------------------------------------------------|
|-6-6-6-6-6-6-6-6-7-7-7-7-7-7-7-7-8-8-8-8-8-8-8-8-7-7-7-7-7-7-7-7-|
|-----------------------------------------------------------------|
|-----------------------------------------------------------------|
pm................................................................

|--------------------------------------------|
|--------------------------------------------|
|--------------------------------------------|
|-4-4-4-4-4-4-4-4-3-3-4-4-4-4-4-4-4----------|
|--------------------------------------------|
|--------------------------------------------|
pm................................

Chorus (Nothing until Rhythm's done pming, Distorted)
|-------13------14------13-----------|
|---14------14------14------14-------|
|-------------------------------(x4)-|
|------------------------------------|
|------------------------------------|
|------------------------------------|

Outro (Distorted)
|--------------------------------------------------|
|-7\/6\/9\/14\/7\/6\/9\/6\/7\/6\/9\/14\/7\/6\/9\/6-|
|--------------------------------------------------|
|--------------------------------------------------|
|--------------------------------------------------|
|--------------------------------------------------|

------------------------------------------------------

RHYTHM GUITAR (All Distorted)

Intro (Nothing until Lead's 4th time)
|------------|
|------------|
|------------|
|-6-6--6-6-6-|
|-6-6--6-6-6-|
|-4-4--4-4-4-|

|-----------------------------------------------------------------|
|-----------------------------------------------------------------|
|-6-6-6-6-6-6-6-6-6-6-6-6-6-6-6-6-6-6-6-6-6-6-6-6-6-6-6-6-6-6-6-6-|
|-6-6-6-6-6-6-6-6-6-6-6-6-6-6-6-6-6-6-6-6-6-6-6-6-6-6-6-6-6-6-6-6-|
|-4-4-4-4-4-4-4-4-4-4-4-4-4-4-4-4-4-4-4-4-4-4-4-4-4-4-4-4-4-4-4-4-|
|-----------------------------------------------------------------|

|-----------------------------------------------------------------|
|-----------------------------------------------------------------|
|-6-6-6-6-6-6-6-6-6-6-6-6-6-6-6-6---------------------------------|
|-6-6-6-6-6-6-6-6-6-6-6-6-6-6-6-6-6-6-6-6-6-6-6-6-6-6-6-6-6-6-6-6-|
|-4-4-4-4-4-4-4-4-4-4-4-4-4-4-4-4-6-6-6-6-6-6-6-6-6-6-6-6-6-6-6-6-|
|---------------------------------4-4-4-4-4-4-4-4-4-4-4-4-4-4-4-4-|

Verse (x2)
|-----------------------------------------------------------------|
|-----------------------------------------------------------------|
|-----------------------------------------------------------------|
|-6-6-6-6-6-6-6-6-6-6-6-6-6-6-6-6-6-6-6-6-6-6-6-6-6-6-6-6-6-6-6-6-|
|-4-4-4-4-4-4-4-4-4-4-4-4-4-4-4-4-4-4-4-4-4-4-4-4-4-4-4-4-4-4-4-4-|
|-----------------------------------------------------------------|
pm...............................................................

|-----------------------------------------------------------------|
|-----------------------------------------------------------------|
|-----------------------------------------------------------------|
|-6-6-6-6-6-6-6-6-6-6-6-6-6-6-6-6---------------------------------|
|-4-4-4-4-4-4-4-4-4-4-4-4-4-4-4-4-6-6-6-6-6-6-6-6-6-6-6-6-6-6-6-6-|
|---------------------------------4-4-4-4-4-4-4-4-4-4-4-4-4-4-4-4-|
pm...............................................................

Chorus (x2)
|-----------------------------------------------------------------|
|-----------------------------------------------------------------|
|-------------------------------------------------6-6-6-6-6-6-6-6-|
|-4-4-4-4-4-4-4-4-3-3-3-3-3-3-3-3-6-6-6-6-6-6-6-6-6-6-6-6-6-6-6-6-|
|-4-4-4-4-4-4-4-4-4-4-4-4-4-4-4-4-6-6-6-6-6-6-6-6-4-4-4-4-4-4-4-4-|
|-2-2-2-2-2-2-2-2-1-1-1-1-1-1-1-1-4-4-4-4-4-4-4-4-----------------|

Verse (x2)
|-----------------------------------------------------------------|
|-----------------------------------------------------------------|
|-----------------------------------------------------------------|
|-6-6-6-6-6-6-6-6-6-6-6-6-6-6-6-6-6-6-6-6-6-6-6-6-6-6-6-6-6-6-6-6-|
|-4-4-4-4-4-4-4-4-4-4-4-4-4-4-4-4-4-4-4-4-4-4-4-4-4-4-4-4-4-4-4-4-|
|-----------------------------------------------------------------|
pm...............................................................

|-----------------------------------------------------------------|
|-----------------------------------------------------------------|
|-----------------------------------------------------------------|
|-6-6-6-6-6-6-6-6-6-6-6-6-6-6-6-6---------------------------------|
|-4-4-4-4-4-4-4-4-4-4-4-4-4-4-4-4-6-6-6-6-6-6-6-6-6-6-6-6-6-6-6-6-|
|---------------------------------4-4-4-4-4-4-4-4-4-4-4-4-4-4-4-4-|
pm...............................................................

Chorus
|----------------------------------------------------------------------|
|----------------------------------------------------------------------|
|-------------------------------------------------6-6-6-6-6-6-6-6------|
|-4-4-4-4-4-4-4-4-3-3-3-3-3-3-3-3-6-6-6-6-6-6-6-6-6-6-6-6-6-6-6-6-(x3)-|
|-4-4-4-4-4-4-4-4-4-4-4-4-4-4-4-4-6-6-6-6-6-6-6-6-4-4-4-4-4-4-4-4------|
|-2-2-2-2-2-2-2-2-1-1-1-1-1-1-1-1-4-4-4-4-4-4-4-4----------------------|

|-----------------------------------------------------------------|
|-----------------------------------------------------------------|
|-------------------------------------------------6-6-6-6---------|
|-4-4-4-4-4-4-4-4-3-3-3-3-3-3-3-3-6-6-6-6-6-6-6-6-6-6-6-6-6-6-6-6-|
|-4-4-4-4-4-4-4-4-4-4-4-4-4-4-4-4-6-6-6-6-6-6-6-6-4-4-4-4-6-6-6-6-|
|-2-2-2-2-2-2-2-2-1-1-1-1-1-1-1-1-4-4-4-4-4-4-4-4---------4-4-4-4-|

Rhythm Figure
|-------------------------------------|
|-------------------------------------|
|-6-6-6-6-6---6-----6-6-6-6-6---6-----|
|-6-6-6-6-6---6-----6-6-6-6-6---6-----|
|-4-4-4-4-4---4-----4-4-4-4-4---4-----|
|-------------------------------------|

|----------------------------------------------|
|----------------------------------------------|
|-6-6-6-6-6---6--------------------------------|
|-6-6-6-6-6---6-----6-6-6-6-6---------6--6-6-6-|
|-4-4-4-4-4---4-----6-6-6-6-6---------6--6-6-6-|
|-------------------4-4-4-4-4---------4--4-4-4-|

Solo (x2)
|-----------------------------------------------------------------|
|-----------------------------------------------------------------|
|-6-6-6-6-6-6-6-6-6-6-6-6-6-6-6-6-6-6-6-6-6-6-6-6-6-6-6-6-6-6-6-6-|
|-6-6-6-6-6-6-6-6-6-6-6-6-6-6-6-6-6-6-6-6-6-6-6-6-6-6-6-6-6-6-6-6-|
|-4-4-4-4-4-4-4-4-4-4-4-4-4-4-4-4-4-4-4-4-4-4-4-4-4-4-4-4-4-4-4-4-|
|-----------------------------------------------------------------|

|-----------------------------------------------------------------|
|-----------------------------------------------------------------|
|-8-8-8-8-8-8-8-8-8-8-8-8-8-8-8-8---------------------------------|
|-8-8-8-8-8-8-8-8-8-8-8-8-8-8-8-8-6-6-6-6-6-6-6-6-6-6-6-6-6-6-6-6-|
|-6-6-6-6-6-6-6-6-6-6-6-6-6-6-6-6-6-6-6-6-6-6-6-6-6-6-6-6-6-6-6-6-|
|---------------------------------4-4-4-4-4-4-4-4-4-4-4-4-4-4-4-4-|

|-----------------------------------------------------------------|
|-----------------------------------------------------------------|
|-6-6-6-6-6-6-6-6-6-6-6-6-6-6-6-6-6-6-6-6-6-6-6-6-6-6-6-6-6-6-6-6-|
|-6-6-6-6-6-6-6-6-6-6-6-6-6-6-6-6-6-6-6-6-6-6-6-6-6-6-6-6-6-6-6-6-|
|-4-4-4-4-4-4-4-4-4-4-4-4-4-4-4-4-4-4-4-4-4-4-4-4-4-4-4-4-4-4-4-4-|
|-----------------------------------------------------------------|

|-----------------------------------------------------------------|
|-----------------------------------------------------------------|
|-8-8-8-8-8-8-8-8-8-8-8-8-8-8-8-8---------------------------------|
|-8-8-8-8-8-8-8-8-8-8-8-8-8-8-8-8-6-6-6-6-6-6-6-6-6-6-6-6-6-6-6-6-|
|-6-6-6-6-6-6-6-6-6-6-6-6-6-6-6-6-6-6-6-6-6-6-6-6-6-6-6-6-6-6-6-6-|
|---------------------------------4-4-4-4-4-4-4-4-4-4-4-4-4-4-4-4-|

Interlude
|-----------------------------------------------------------------|
|-----------------------------------------------------------------|
|-----------------------------------------------------------------|
|-----------------------------------------------------------------|
|-4-4-4-4-4-4-4-4-4-4-4-4-4-4-4-4-4-4-4-4-4-4-4-4-4-4-4-4-4-4-4-4-|
|-----------------------------------------------------------------|
pm................................................................

|-----------------------------------|
|-----------------------------------|
|-----------------------------------|
|-4-4-4-4-4--------4-4-4-4-4--------|
|-4-4-4-4-4--------4-4-4-4-4--------|
|-2-2-2-2-2--------2-2-2-2-2--------|

|-----------------------------------------------------------------|
|-----------------------------------------------------------------|
|-----------------------------------------------------------------|
|-----------------------------------------------------------------|
|-4-4-4-4-4-4-4-4-4-4-4-4-4-4-4-4-4-4-4-4-4-4-4-4-4-4-4-4-4-4-4-4-|
|-----------------------------------------------------------------|
pm................................................................

|-----------------------------------|
|-----------------------------------|
|-----------------------------------|
|-4-4-4-4-4--------4----------------|
|-4-4-4-4-4--------4----------------|
|-2-2-2-2-2--------2----------------|

Chorus
|----------------------------------------------------------------------|
|----------------------------------------------------------------------|
|----------------------------------------------------------------------|
|----------------------------------------------------------------------|
|-------------------------------------------------4-4-4-4-4-4-4-4-(x2)-|
|-2-2-2-2-2-2-2-2-1-1-1-1-1-1-1-1-4-4-4-4-4-4-4-4----------------------|
pm.....................................................................

|----------------------------------------------------------------------|
|----------------------------------------------------------------------|
|-------------------------------------------------6-6-6-6-6-6-6-6------|
|-4-4-4-4-4-4-4-4-3-3-3-3-3-3-3-3-6-6-6-6-6-6-6-6-6-6-6-6-6-6-6-6-(x2)-|
|-4-4-4-4-4-4-4-4-4-4-4-4-4-4-4-4-6-6-6-6-6-6-6-6-4-4-4-4-4-4-4-4------|
|-2-2-2-2-2-2-2-2-1-1-1-1-1-1-1-1-4-4-4-4-4-4-4-4----------------------|

Outro (x4)
|-----------------|
|-----------------|
|-------------6---|
|-4---3---6---6---|
|-4---4---6---4---|
|-2---1---4-------|





Comments


Popular Asian Kung-Fu Generation tabs & chords
Last Scene Bass Tabs
Angou No Waltz Chords
Haruka Kanata Chords
After Dark Tabs
Butterfly Tabs
Kimi To Iu Hana Tabs
Last Scene Tabs
My World Tabs
Yuigahama Kite Tabs
Korogaru Iwa Kimi Ni Asa Ga Furu Ukulele


Song lyrics



↑ Back to top | Tablatures and chords are parodies/interpretations of the original songs. You may use it for private study, scholarship, research or language learning purposes only
© 2014 AZChords.com Contact us | Privacy policy | DMCA | Add/correct tabs | Request tabs | Top 50 tabs