>
 >
Haruka Kanata 1

Haruka Kanata 1 Bass Tabs

Asian Kung-Fu Generation - Haruka Kanata 1 chords, tabs, tablatures, lyrics

Guitar lessons | Add/correct | Request | Top 50 tabs Artists:  A B C D E F G H I J K L M N O P Q R S T U V W X Y Z 0-9

Haruka Kanata 1 Bass Tabs – Asian Kung-Fu Generation

CD, Sheet music, Poster

Do you like Haruka Kanata 1? Share with your friends now
Bass TabsBass Tabs v2Bass Tabs v3Bass Tabs v4ChordsChords v2Chords v3Chords v4Chords v5TabsTabs v2Ukulele
-------------------------------------------------------------------------------
			     HARUKA KANATA - Asian Kung-fu Generation
-------------------------------------------------------------------------------

This is a slightly updated version of a previous tab, I changed a few of the fills
so that they more accurately portray the songs bass fills.


Tuning:EADG


Awesome Intro!
G|--------|
D|--------|
A|--------|
E|00020054x8

Verse 1
G|-------------------------------|
D|-------------------------------|
A|4-4-444-2-2-222-0-0-000-0-0-00-|
E|-------------------------------|

G|----------------------------------|
D|----------------------------------|
A|----------------------------------|
E|0-0-000-00200054-0-0-000-00205454-|

Verse 1
G|-------------------------------|
D|-------------------------------|
A|4-4-444-2-2-222-0-0-000-0-0-00-|
E|-------------------------------|

G|--------|
D|--------|
A|--------|
E|0-0-0-0-|x4

Verse 1 variation
G|-------------------------------|
D|-------------------------------|
A|4-4-444-6-6-666-0-0-000-0-0-00-|
E|-------------------------------|

G|--------|
D|--------|
A|--------|
E|0-0-0-0-|x4

Verse 1
G|-------------------------------|
D|-------------------------------|
A|4-4-444-2-2-222-0-0-000-0-0-00-|
E|-------------------------------|

G|-----------------|
D|-----------------|
A|4-4-4-0444-6-7-4-|
E|-----------------|

G|-----------------|
D|-----------------|
A|-----------------|
E|4-4-4-0444-2-4-0-|

G|-----------------------------------|
D|-----------------------------------|
A|-----------------------7h9-7-7-6-6-|
E|5-5-5-0555-4-5-2-0-0-00------------|

G|-----------------|
D|-----------------|
A|4-4-4-0444-6-7-4-|
E|-----------------|

G|-----------------|
D|-----------------|
A|-----------------|
E|4-4-4-0444-2-4-0-|

G|-------------|
D|-------------|
A|-------------|
E|5-4-5-4-54x2-|

E|0~

A|1/7~

Verse 2
G|-----------------------------------------------------------------|
D|-----------------------------------------------------------------|
A|---------------6-6-666-666-666-4-4-4444-2-2-2222-0-00-00-00-00-0-|
E|0-0-000-000-000--------------------------------------------------|

Verse 2 var.
G|-------------------------------------------------------------------|
D|-------------------------------------------------------------------|
A|7777777777777777-6-6-666-666-666-4-4-4444-2-2-2222-0-00-00-00-00-0-|
E|-------------------------------------------------------------------|

Bass Solo!(Intro)
G|--------|
D|--------|
A|--------|
E|00020054x3

G|-----
D|-----
A|-----
E|00020

G|--------|
D|--------|
A|--------|
E|0-0-0-0-|x4

Verse 1
G|-------------------------------|
D|-------------------------------|
A|4-4-444-2-2-222-0-0-000-0-0-00-|
E|-------------------------------|

G|--------|
D|--------|
A|7\------|
E|-5\-----|

G|----------------------------------|
D|----------------------------------|
A|----------------------------------|
E|0-0-000-00200054-0-0-000-00205454-|

Verse 1
G|-------------------------------|
D|-------------------------------|
A|4-4-444-2-2-222-0-0-000-0-0-00-|
E|-------------------------------|

G|-----------------|
D|-----------------|
A|4-4-4-0444-6-7-4-|
E|-----------------|

G|-----------------|
D|-----------------|
A|-----------------|
E|4-4-4-0444-2-4-0-|

G|-----------------------------------|
D|-----------------------------------|
A|-----------------------7h9-7-7-6-6-|
E|5-5-5-0555-4-5-2-0-0-00------------|

G|-----------------|
D|-----------------|
A|4-4-4-0444-6-7-4-|
E|-----------------|

G|-----------------|
D|-----------------|
A|-----------------|
E|4-4-4-0444-2-4-0-|

G|-------------|
D|-------------|
A|-------------|
E|5-4-5-4-54x2-|

E|0~

A|1/7~

Verse 2
G|-----------------------------------------------------------------|
D|-----------------------------------------------------------------|
A|---------------6-6-666-666-666-4-4-4444-2-2-2222-0-00-00-00-00-0-|
E|0-0-000-000-000--------------------------------------------------|

Verse 2 var.
G|----------------------------------------------------------------|
D|----------------------------------------------------------------|
A|7777777777777777-6-6-666-666-666-4-4-4444-2-2-2222-54-54-54-54--|
E|-----------------------------------------------------0--0--0--0-|

E|0~

G|-------------|
D|-------------|
A|1/7~9-7-9-7--|
E|-------7---7-|

G|------------------------|
D|------------------------|
A|4-4-4-4-4-4-6-6-6-6-6-6-|
E|------------------------|x2

E|0~

G|--------------|
D|---------76---|
A|1/7~9-7-------|
E|-------7----7-|

G|----------------------------------------|
D|----------------------------------------|
A|4-4-4-4-4-4-6-6-6-6-6-6-444-444-444-444-|
E|----------------------------------------|

Verse 3(Key change)
G|---------------------------------------------------------------------------------|
D|---------------------------------------------------------------------------------|
A|-------------------4--44-444-4--44-444-0--00-000-0--00-000-2--22-222-0-0-0-2-2-2-|
E|4--44-444-4--44-444--------------------------------------------------------------|

G|-----------------------------------------------------------|
D|-----------------------------------------------------------|
A|-------------------4--44-444-4--44-444---------------------|
E|4--44-444-4--44-444--------------------5-00-5-00-5-00-5-00-|

G|-----------------------------|
D|-----------------------------|
A|3-3-3-3-3-3-3-3-3-3-5-6-7~0~-|
E|-----------------------------|

G|------------------------|
D|------------------------|
A|4-4-4-4-4-4-2-2-2-2-2-2-|
E|------------------------|

Ending
E|5\


| /  slide up
| \  slide down
| h  hammer-on





Comments


Popular Asian Kung-Fu Generation tabs & chords
Fujisawa Loser Bass Tabs
Haruka Kanata Bass Tabs
Last Scene Bass Tabs
Mustang Bass Tabs
Haruka Kanata 1 Chords
Haruka Kanata 4 Chords
Mustang Tabs
Rashinban Compass Tabs
Shindoukaku Tabs
Korogaru Iwa Kimi Ni Asa Ga Furu Ukulele


Song lyrics



↑ Back to top | Tablatures and chords are parodies/interpretations of the original songs. You may use it for private study, scholarship, research or language learning purposes only
© 2014 AZChords.com Contact us | Privacy policy | DMCA | Add/correct tabs | Request tabs | Top 50 tabs