>
 >
Haruka Kanata

Haruka Kanata Bass Tabs

Asian Kung-Fu Generation - Haruka Kanata chords, tabs, tablatures, lyrics

Guitar lessons | Add/correct | Request | Top 50 tabs Artists:  A B C D E F G H I J K L M N O P Q R S T U V W X Y Z 0-9

Haruka Kanata Bass Tabs – Asian Kung-Fu Generation

CD, Sheet music, Poster

Do you like Haruka Kanata? Share with your friends now
Bass TabsBass Tabs v2Bass Tabs v3Bass Tabs v4ChordsChords v2Chords v3Chords v4Chords v5TabsTabs v2Ukulele
Welcome, welcome one and all, to my Haruka Kanata bass tab!  I noticed that there were
no Asian Kung-Fu Generation tabs on the site, so I thought I'd add one of my favourite
song!  This song does rule, and if you wish to play it, whether a Naruto or A.K.G fan,
I'm sure that this tab will help.  Now, I do know that it's not the exact bass tab which
the band use, but being based on an acoustic tab, it bloody well sounds good with it.
I recommend having very fast fingers for the intro.  You'll need them!  Oh, and before I
forget, "r" means let the note ring.


Intro
G ------------------------------------------|
D ------------------------------------------|
A ------------------------------------------|			X4
E -00-2-0-0-5-4-00-2-0-0-5-4--------------|

G ----------------------------------------------------------------|
D ----------------------------------------------------------------|
A 4-4-4-4-4-4-4-4-2-2-2-2-2-2-2-2-0-0-0-0-0-0-0-0-----------------|
E ------------------------------------------------0-0-0-0-0-0-0-0-|
		^---- Play twice.

Verse 1: Fumekomuze akuseru kake...
G --------------------------------|
D --------------------------------|
A --------------------------------|
E 0-0-0-0-0-0-0-0-0-0-0-0-0-0-0-0-|

G --------------------------------|
D --------------------------------|			All of Verse 1 X 2
A 4-4-4-4-2-2-2-2-0-0-0-0-0-0-0-0-|
E --------------------------------|

Bridge 1: Kokoro wo sotto...
G -----------------------------------------------|
D ----------------6-6-6-6-6-6-6-6----------------|
A 4-4-4-4-4-4-4-4----------------0-0-0-0-0-0-0-0-|
E -----------------------------------------------|

G -------------------|
D -------------------|
A -----------2-2-2-2-|
E 0-0-0-0------------|

G --------------------------------|
D ----------------6-6-6-6-6-6-6-6-|
A 4-4-4-4-4-4-4-4-----------------|
E --------------------------------|


G ---------------------------------------------------|
D ----------------666666666666666--------------------|
A 0000000000000000-----------------------------------|
E -------------------------------0r---------------0--|r

Chorus: Iki isoideeeeee...
G --------------------------------|
D --------------------------------|
A ----------------2-2-2-2-2-2-2-2-|
E 0-0-0-0-0-0-0-0-----------------|

G --------------------------------|
D --------------------------------|
A 4-4-4-4-2-2-2-2-0-0-0-0-0-0-0-0-|
E --------------------------------|

G --------------------------------|
D --------------------------------|
A ----------------2-2-2-2-2-2-2-2-|
E 0-0-0-0-0-0-0-0-----------------|

G ------------------------------------------------|
D ------------------------------------------------|
A 4-4-4-4-2-2-2-2-0-0-0-0-0-0-0-0-----------------|
E --------------------------------0-0-0-0-0-0-0-0-|

Verse 2: Fumikomuze akuseru kake...

G -----------------------------|
D -----------------------------|
A -----------------------------|		X 4
E -00-2-0-0-5-4-00-2-0-0-5-4-|

Then, it's pretty simple, repeat Verse 1 and the Chorus.  After that, we come to what I 
to call The Uber Bridge

Uber Bridge:   Itsuwaru kooooooooooooo
G -----------------------------------------------|
D -----------------------------------------------|
A -----------------------------------------------|
E -0r-----------------------------0r-------------|


G ----------------------------------------------------------------|
D ----------------------------------------------------------------|
A 4-4-4-4-4-4-4-4--2-2-2-2-2-2-2-2--0-0-0-0-0-0-0-0-0-0-0-0-0-0-0-|
E ----------------------------------------------------------------|

G ----------------------------------------|
D ----------------------------------------|
A ----------------------------------------|
E -0r---------------------0r--------------|

G ----------------------------------------------------------------|
D ----------------------------------------------------------------|
A 4-4-4-4-4-4-4-4-2-2-2-2-2-2-2-2-0-0-0-0-0-0-0-0-0-0-0-0-0-0-0-0-|
E ----------------------------------------------------------------|

G ----------------------------------------------------------------|
D 6-6-6-6-6-6-6-6-------------------------------------------------|
A ----------------4-4-4-4-4-4-4-4-0-0-0-0-0-0-0-0-2-2-2-2-0-0-0-0-|
E ----------------------------------------------------------------|

G ----------------------------------------------------------------|
D 6-6-6-6-6-6-6-6-------------------------------------------------|
A ----------------4-4-4-4-4-4-4-4-0-0-0-0-0-0-0-0-0-0-0-0-0-0-0-0-|
E ----------------------------------------------------------------|

Tada!  You did the Uber Bridge!!  Well, yes, you are right, not difficult to play at 
 Bloody boring to tab though!  You owe me!

Outro
G ---------------------------------------------|
D ---------------------------------------------|
A ---------------------------------------------|
E -0r------------------------0r----------------|

G ---------------------------------------------------|
D ---------------------------------------------------|
A 4-4-4-4-4-4-4-4-2-2-2-2-2-2-2-2-0-0-0-0-0-0-0-0----|
E ------------------------------------------------0r-|

Let the last note ring.  Let me know if you like it!  Sayonara...





Comments


Popular Asian Kung-Fu Generation tabs & chords
Fujisawa Loser Bass Tabs
Haruka Kanata 3 Bass Tabs
Kaiga Kyoushitsu Bass Tabs
Haruka Kanata 4 Chords
Solanin Chords
Flash Back Tabs
Kimi No Machi Made Tabs
My World Tabs
Shindoukaku Tabs
Solanin Ukulele


Song lyrics



↑ Back to top | Tablatures and chords are parodies/interpretations of the original songs. You may use it for private study, scholarship, research or language learning purposes only
© 2014 AZChords.com Contact us | Privacy policy | DMCA | Add/correct tabs | Request tabs | Top 50 tabs