» » »

Asian Kung-Fu Generation, Flash Back Tabs (ver.2)

Artists:  A B C D E F G H I J K L M N O P Q R S T U V W X Y Z # 

Flash Back Tabs (ver.2)

Asian Kung-Fu Generation Tabs
 Rating:
4/5 (4 votes)
Flash Back lessons Tabs too difficult? Try these video lessons and learn fast
                Intro: B G D A

E|---------2------|
B|-----2-------2--|
G|---3---3---3--3-|
D|-0--------------|
A|----------------|
E|----------------|

Riff 1

E|----------------------|
B|----------------------|
G|----------------------|
D|-44444---77777--------|
A|-22222-5-55555-7------|
E|-------3-------5------|

Chorus
Base: G D

E|---------2------2-|
B|-----2-------2----|
G|---3---3---3---3--|
D|-0----------------|
A|------------------|
E|------------------|

Riff 2: G A B D

E|----------------------------------------------------------xx--|
B|----------------------------------------------------------xx--|
G|-------12-12-11-11------11-11-12-12-----12-12-14-14-------xx--|
D|-------xx-xx-xx-xx------xx-xx-xx-xx-----xx-xx-xx-xx-------xx--|
A|--5-7--10-10-9--9--5-7--9--9- 10-10-5-7-10-10-12-12-5-7-9-xx--|
E|--3-5--------------3-5--------------3-5-------------3-5-7-xx--|

Riff 3
E|---------------|
B|------6^-3h5-3-|
G|---------------|
D|---------------|
A|-5-7-----------|
E|-3-5-----------|

Riff 4
E|---------------|
B|------8^-7h8---|
G|-------------7-|
D|---------------|
A|-7-9-----------|
E|-5-7-----------|

Riff 5
E|----------------|
B|--------7-7-x-7-|
G|--------7-7-x-7-|
D|----------------|
A|-7-8-9----------|
E|-5-6-7----------|

Riff 6

E|-------------------|
B|--------8-8-x-8-8--|
G|--------7-7-x-7-7--|
D|-7-8-9--9-9-x-9-9--|
A|-5-6-7-------------|
E|-------------------|
            
Submit corrections

comments powered by Disqus
↑ Back to top | Asian Kung-Fu Generation Tabs for Flash Back. Lyrics for acoustic guitar and electric guitar. Tablatures and chords are parodies/interpretations of the original songs. You may use it for private study, scholarship, research or language learning purposes only