» » »

Asian Kung-Fu Generation, Angou No Waltz Tabs (ver.1)

Artists:  A B C D E F G H I J K L M N O P Q R S T U V W X Y Z # 

Angou No Waltz Tabs (ver.1)

Asian Kung-Fu Generation Tabs
 Rating:
4.4/5 (7 votes)
Angou No Waltz lessons Tabs too difficult? Try these video lessons and learn fast
                
It's not complete yet but I should finish it within this week and just do minor 
every now and then. The final version should have the timing and everything. I highly recommend 
whole CD! It's amazing stuff :-) Alright here goes:

Two Guitars
Standard Tunning

| /  slide up
| \  slide down
| h  hammer-on
| p  pull-off
| ~  Let Ring/Light Vibrato
| +  harmonic
| x  Mute note
| <  Volume Swell

Intro:

Guitar 1:

e|-----------------------------------------|
B|-----------------------------------------|
G|----------/14-13---------------/14-13----|
D|---11------------14~--/12-11~----------14|x2
A|12----12~--------------------12----------|
E|-----------------------------------------|

Guitar 2: (Slowly increase the volume throughout the song)

e|---------------|
B|---------------|
G|---------------|X4
D|222-444-666-222|
A|000-222-444-222|
E|------------000|

Verse:

Guitar 1:

e|----------|
B|----------|
G|-9---11-9~|x8
D|---9------|
A|----------|
E|----------|

Guitar 2:

e|---------------|
B|---------------|
G|---------------|X4
D|222-444-666-222|
A|000-222-444-222|
E|------------000|

Intro Again:

Guitar 1:

e|-----------------------------------------|
B|-----------------------------------------|
G|----------/14-13---------------/14-13----|
D|---11------------14~--/12-11~----------14|x2
A|12----12~--------------------12----------|
E|-----------------------------------------|

Guitar 2: (Slowly increase the volume throughout the song)

e|---------------|
B|---------------|
G|---------------|X4
D|222-444-666-222|
A|000-222-444-222|
E|------------000|

Verse 2:

Guitar 1:

e|------------|
B|------------|
G|-9---11-9---|x8
D|---9------9~|
A|------------|
E|------------|

Guitar 2:

e|---------------|
B|---------------|
G|---------------|X4
D|222-444-666-222|
A|000-222-444-222|
E|------------000|

Chorus: (All Guitars Distorted)

Guitar 1 or 3 (There's a guitar that swells with distortion)
e|---------------------------------------------------------------------------|
B|---------------------------------------------------------------------------|
G|9<<<-----------------------------------------------------------------------|
D|9<<<-----------------------------------------------------------------------|
A|---------------------------------------------------------------------------|
E|---------------------------------------------------------------------------|

Guitar 1: (I can't quite make it out yet but it's something like this)

e|-----------------------|
B|-----------------------|
G|------16----14---------|
D|14----------------18---|x7 and end with this:
A|---14----14----14----14|
E|-----------------------|

e|---------------------------|
B|---------------------------|
G|------16----14-------------|
D|14----------------18-16-14~|
A|---14----14----14----------|
E|---------------------------|

Guitar 2:
e|------------------------------------|
B|------------------------------------|
G|22222222-44444444-66666666----------|
D|22222222-44444444-66666666-22222222-|X2
A|00000000-22222222-44444444-22222222-|
E|---------------------------00000000-|

Post Chorus:

Guitar 1:


e|---------------------------------------------------------------------------|
B|---------------------------------------------------------------------------|
G|---------------------------------------------------------------------------|
D|6~~~--7~~~--9~~~---11~~~---------------------------------------------------|
A|7~~~--9~~~--11~~~--12~~~---------------------------------------------------|
E|---------------------------------------------------------------------------|

Guitar 2: (Play at the same time as guitar 1)
e|---------------------------------------------------------------------------|
B|---------------------------------------------------------------------------|
G|---------------------------------------------------------------------------|
D|2~~~--4~~~--6~~~---7~~~----------------------------------------------------|
A|2~~~--x~~~--x~~~---X~~~----------------------------------------------------|
E|0~~~--2~~~--4~~~---5~~~----------------------------------------------------|


===============================================================================
            
Submit corrections

comments powered by Disqus
↑ Back to top | Asian Kung-Fu Generation Tabs for Angou No Waltz. Lyrics for acoustic guitar and electric guitar. Tablatures and chords are parodies/interpretations of the original songs. You may use it for private study, scholarship, research or language learning purposes only