» » »

Ashley Parker Angel, Perfect Now Tabs (ver.1)

Artists:  A B C D E F G H I J K L M N O P Q R S T U V W X Y Z # 

Perfect Now Tabs (ver.1)

Ashley Parker Angel Tabs
Rating:
5/5 (1 vote)
Perfect Now lessons Tabs too difficult? Try these video lessons and learn fast
                -------------------------------------------------------------------------------
-------------------------------------------------------------------------------

Tuning:Standard
I couldnt hear any other guitars in thie song except for in the solo. So i guess all
guitar just play the same thing over each other or two guitars switch pretty fast. Either
this tab is 98% right. As usual if there's a mistake, tell me and i'll look into it. 
:D

Intro	x2
e|------------------------------------------------------------------|
B|------------------------------------------------------------------|
G|-6-6-6-6-4-4-4-4-9-9-9-9-4-4-4-4-6-6-6-6-4-4-4-4-2-2-2-2-2-2-2-2--|
D|-6-6-6-6-4-4-4-4-9-9-9-9-4-4-4-4-6-6-6-6-4-4-4-4-2-2-2-2-2-2-2-2--|
A|-4-4-4-4-2-2-2-2-7-7-7-7-2-2-2-2-4-4-4-4-2-2-2-2-0-0-0-0-0-0-0-0--|
E|------------------------------------------------------------------|
Verse 1 Use this count for the strumming 1 2 1 2&3 4. Count the strums with this and
get it
e|--4----2----0----2-|
B|--6----4----2----4-|
G|--6----4----2----4-|x4
D|--6----4----2----4-|
A|--4----2----0----2-|
E|-------------------|
Chorus 1	x2
e|------------------------------------------------------------------|
B|------------------------------------------------------------------|
G|-6-6-6-6-4-4-4-4-9-9-9-9-4-4-4-4-6-6-6-6-4-4-4-4-2-2-2-2-2-2-2-2--|
D|-6-6-6-6-4-4-4-4-9-9-9-9-4-4-4-4-6-6-6-6-4-4-4-4-2-2-2-2-2-2-2-2--|
A|-4-4-4-4-2-2-2-2-7-7-7-7-2-2-2-2-4-4-4-4-2-2-2-2-0-0-0-0-0-0-0-0--|
E|------------------------------------------------------------------|
Verse 2
e|--4----2----0----2-|
B|--6----4----2----4-|
G|--6----4----2----4-|x4
D|--6----4----2----4-|
A|--4----2----0----2-|
E|-------------------|
Chorus 2	x2 Before the bridge, extend last chord an extra measure
e|------------------------------------------------------------------|
B|------------------------------------------------------------------|
G|-6-6-6-6-4-4-4-4-9-9-9-9-4-4-4-4-6-6-6-6-4-4-4-4-2-2-2-2-2-2-2-2--|
D|-6-6-6-6-4-4-4-4-9-9-9-9-4-4-4-4-6-6-6-6-4-4-4-4-2-2-2-2-2-2-2-2--|
A|-4-4-4-4-2-2-2-2-7-7-7-7-2-2-2-2-4-4-4-4-2-2-2-2-0-0-0-0-0-0-0-0--|
E|------------------------------------------------------------------|
	x4
e|---------------------------------|
B|---------------------------------|
G|-9-9-9-9-4-4-4-4-2-2-2-2-4-4-4-4-|
D|-9-9-9-9-4-4-4-4-2-2-2-2-4-4-4-4-|
A|-7-7-7-7-2-2-2-2-0-0-0-0-2-2-2-2-|
E|---------------------------------|
Solo! One guitar plays the chords from the verse while the solo is playing. Figure out
rhythm.
e|--------------------------------------------------------------------------------------------|
B|--------------------------------------------------------------------------------------------|
G|-13---11-10-11-13-16-13~-11-11-13-----13------13--8-6~--------------------------------------|
D|----------------------------------11~----11-9----------6---4-3-4-6-9-6~-4-4-6----6----6-----|
A|-----------------------------------------------------------------------------4~---4-2---6-4~|
E|--------------------------------------------------------------------------------------------|
A third guitar palm mutes an A5 with heavy distortion, leading all three guitar into the chorus.
Chorus 3	x4
e|------------------------------------------------------------------|
B|------------------------------------------------------------------|
G|-6-6-6-6-4-4-4-4-9-9-9-9-4-4-4-4-6-6-6-6-4-4-4-4-2-2-2-2-2-2-2-2--|
D|-6-6-6-6-4-4-4-4-9-9-9-9-4-4-4-4-6-6-6-6-4-4-4-4-2-2-2-2-2-2-2-2--|
A|-4-4-4-4-2-2-2-2-7-7-7-7-2-2-2-2-4-4-4-4-2-2-2-2-0-0-0-0-0-0-0-0--|
E|------------------------------------------------------------------|
Outro        Once again, figure out the rhythm. The second guitar DOES NOT play.
e|--------------------------------------------------------------------------------------------|
B|--------------------------------------------------------------------------------------------|
G|-13---11-10-11-13-16-13~-11-11-13-----13------13--8-6~--------------------------------------|
D|----------------------------------11~----11-9----------6---4-3-4-6-9-6~-4-4-6----6----6-----|
A|-----------------------------------------------------------------------------4~---4-2---6-4~|
E|--------------------------------------------------------------------------------------------|
	                                                                                   *
*Right here a second guitar heavily distorted and with some type of modulator plays an
B5 and then looses the modulation and begins to hit A5 before the song finally ends. I
playing with modulations such as tremolo or rotary speaker. I couldn’t find the right 
though. Have fun!
            

comments powered by Disqus
↑ Back to top | Ashley Parker Angel Tabs for Perfect Now. Lyrics for acoustic guitar and electric guitar. Tablatures and chords are parodies/interpretations of the original songs. You may use it for private study, scholarship, research or language learning purposes only