>
 >
Let U Go

Let U Go Guitar Tabs

Ashley Parker Angel - Let U Go chords, tabs, tablatures, lyrics

Guitar lessons | Add/correct | Request | Top 50 tabs Artists:  A B C D E F G H I J K L M N O P Q R S T U V W X Y Z 0-9

Let U Go Guitar Tabs – Ashley Parker Angel

CD, Sheet music, Poster

Do you like Let U Go? Share with your friends now
ChordsTabsTabs v2Ukulele
Ashley Parker Angel


Verse (Guitar 1): x4

E ---------------------------------------------------------------------------|
B ---------------------------------------------------------------------------|
G ---------------------------------------------------------------------------|
D ---7-7-7-7-7-7-7-7-7-7-7-7-7-7-7-7---5-5-5-5-5-5-5-5-5-5-5-5-5-5-5-5-5-5---|
A ---5-5-5-5-5-5-5-5-5-5-5-5-5-5-5-5---5-5-5-5-5-5-5-5-5-5-5-5-5-5-5-5-5-5---|
E ---5-5-5-5-5-5-5-5-5-5-5-5-5-5-5-5---3-3-3-3-3-3-3-3-3-3-3-3-3-3-3-3-3-3---|
                     x16                           x16

E ---------------------------------------------------------------------------|
B ---------------------------------------------------------------------------|
G ---------------------------------------------------------------------------|
D ---3-3-3-3-3-3-3-3-3-3-3-3-3-3-3-3-3-3-3-3-3-3-3-3-3-3-3-3-3-3-3-3---------|
A ---3-3-3-3-3-3-3-3-3-3-3-3-3-3-3-3-3-3-3-3-3-3-3-3-3-3-3-3-3-3-3-3---------|
E ---1-1-1-1-1-1-1-1-1-1-1-1-1-1-1-1-1-1-1-1-1-1-1-1-1-1-1-1-1-1-1-1---------|
                                x32

Verse (Guitar 2):
Comes in at 2nd repeat            x9

E -----------------------------------------------------|
B -----------------------------------------------------|
G ---9-9-9-9-9-9-9-9-9-9-9-9-9-9-9-9h-10h-9------------|
D -----------------------------------------------------|
A -----------------------------------------------------|
E -----------------------------------------------------|

Chorus: (Both Guitars)x2

E ---------------------------------------------------------------------------|
B ---------------------------------------------------------------------------|
G ---------------------------------------------------------------------------|
D ---10-10-10-10-10-10-10-10-10-10-10-10-10-10-10-10---5-5-5-5-5-5-5-5-5-5-5-|
A ---10-10-10-10-10-10-10-10-10-10-10-10-10-10-10-10---5-5-5-5-5-5-5-5-5-5-5-|
E ---8---8--8--8--8--8--8--8--8--8--8--8--8--8--8--8---3-3-3-3-3-3-3-3-3-3-3-|
                         x16                                       x16

E ---------------------------------------------------------------------------|
B ---------------------------------------------------------------------------|
G ---------------------------------------------------------------------------|
D ---7-7-7-7-7-7-7-7-7-7-7-7-7-7-7-7---3-3-3-3-3-3-3-3-3-3-3-3-3-3-3-3-3-----|
A ---7-7-7-7-7-7-7-7-7-7-7-7-7-7-7-7---3-3-3-3-3-3-3-3-3-3-3-3-3-3-3-3-3-----|
E ---5-5-5-5-5-5-5-5-5-5-5-5-5-5-5-5---1-1-1-1-1-1-1-1-1-1-1-1-1-1-1-1-1-----|
                            x16                       x16

Verse (Guitar 1): x4

E ---------------------------------------------------------------------------|
B ---------------------------------------------------------------------------|
G ---------------------------------------------------------------------------|
D ---7-7-7-7-7-7-7-7-7-7-7-7-7-7-7-7---5-5-5-5-5-5-5-5-5-5-5-5-5-5-5-5-5-5---|
A ---5-5-5-5-5-5-5-5-5-5-5-5-5-5-5-5---5-5-5-5-5-5-5-5-5-5-5-5-5-5-5-5-5-5---|
E ---5-5-5-5-5-5-5-5-5-5-5-5-5-5-5-5---3-3-3-3-3-3-3-3-3-3-3-3-3-3-3-3-3-3---|
                    x16                            x16

E ---------------------------------------------------------------------------|
B ---------------------------------------------------------------------------|
G ---------------------------------------------------------------------------|
D ---3-3-3-3-3-3-3-3-3-3-3-3-3-3-3-3-3-3-3-3-3-3-3-3-3-3-3-3-3-3-3-3---------|
A ---3-3-3-3-3-3-3-3-3-3-3-3-3-3-3-3-3-3-3-3-3-3-3-3-3-3-3-3-3-3-3-3---------|
E ---1-1-1-1-1-1-1-1-1-1-1-1-1-1-1-1-1-1-1-1-1-1-1-1-1-1-1-1-1-1-1-1---------|
                                  x32

Verse (Guitar 2):
Comes in at 2nd repeat            x9

E ---------------------------------------------------------------------------|
B ---------------------------------------------------------------------------|
G ---9-9-9-9-9-9-9-9-9-9-9-9-9-9-9-9h-10h-9----------------------------------|
D ---------------------------------------------------------------------------|
A ---------------------------------------------------------------------------|
E ---------------------------------------------------------------------------|

Chorus: (Both Guitars)  x2

E ---------------------------------------------------------------------------|
B ---------------------------------------------------------------------------|
G ---------------------------------------------------------------------------|
D ---10-10-10-10-10-10-10-10-10-10-10-10-10-10-10-10---5-5-5-5-5-5-5-5-5-5-5-|
A ---10-10-10-10-10-10-10-10-10-10-10-10-10-10-10-10---5-5-5-5-5-5-5-5-5-5-5-|
E ----8--8--8--8--8--8--8--8--8--8--8--8--8--8--8--8---3-3-3-3-3-3-3-3-3-3-3-|
                    x16                                     x16

E ---------------------------------------------------------------------------|
B ---------------------------------------------------------------------------|
G ---------------------------------------------------------------------------|
D ---7-7-7-7-7-7-7-7-7-7-7-7-7-7-7-7---3-3-3-3-3-3-3-3-3-3-3-3-3-3-3-3-3-----|
A ---7-7-7-7-7-7-7-7-7-7-7-7-7-7-7-7---3-3-3-3-3-3-3-3-3-3-3-3-3-3-3-3-3-----|
E ---5-5-5-5-5-5-5-5-5-5-5-5-5-5-5-5---1-1-1-1-1-1-1-1-1-1-1-1-1-1-1-1-1-----|
                     x16                          x16


Bridge (Guitar 1):              Do This SLOWLY!!!

E ---------------------------------------------------------------------------|
B ---------------------------------------------------------------------------|
G ---------------------------------------------------------------------------|
D ---10-10-10-10---3-3-3-3---10-10-10-10---5-5--6-6---10-10-10-10---3-3-3-3--|
A ----8--8--8--8---3-3-3-3----8--8--8--8---5-5--4-4---10-10-10-10---3-3-3-3--|
E ----8--8--8--8---1-1-1-1----8--8--8--8---3-3--4-4----8--8--8--8---1-1-1-1--|


Bridge (Guitar 2):

E ---------------------------------------------------------------------------|
B ---------------------------------------------------------------------------|
G ---9-9-9-12-9-9-9-12-9-9-9-12-7-7-8-8-9-9-9-12-9-9-9-12-9-9-9-12-7---------|
D ---------------------------------------------------------------------------|
A ---------------------------------------------------------------------------|
E ---------------------------------------------------------------------------|


Verse (Both Guitars):

E ----------------------------------------------------------------------------|
B ----------------------------------------------------------------------------|
G ----------------------------------------------------------------------------|
D ---10---------------5--------------7--------3-3-3-3-3-3-3-3-3-3-3-3-3-3-3-3-|
A ---10---------------5--------------7--------3-3-3-3-3-3-3-3-3-3-3-3-3-3-3-3-|
E ----8---------------3--------------5--------1-1-1-1-1-1-1-1-1-1-1-1-1-1-1-1-|
               Gradually get louder [-----------------------------------------|

Chorus: (Both Guitars)  x4

E ---------------------------------------------------------------------------|
B ---------------------------------------------------------------------------|
G ---------------------------------------------------------------------------|
D ---10-10-10-10-10-10-10-10-10-10-10-10-10-10-10-10---5-5-5-5-5-5-5-5-5-5-5-|
A ---10-10-10-10-10-10-10-10-10-10-10-10-10-10-10-10---5-5-5-5-5-5-5-5-5-5-5-|
E ----8--8--8--8--8--8--8--8--8--8--8--8--8--8--8--8---3-3-3-3-3-3-3-3-3-3-3-|
x16                                                    x16

E ----------------------------------------------------------------------------|
B ----------------------------------------------------------------------------|
G ----------------------------------------------------------------------------|
D ---7-7-7-7-7-7-7-7-7-7-7-7-7-7-7-7---3-3-3-3-3-3-3-3-3-3-3-3-3-3-3-3-3---10-|
A ---7-7-7-7-7-7-7-7-7-7-7-7-7-7-7-7---3-3-3-3-3-3-3-3-3-3-3-3-3-3-3-3-3---10-|
E ---5-5-5-5-5-5-5-5-5-5-5-5-5-5-5-5---1-1-1-1-1-1-1-1-1-1-1-1-1-1-1-1-1----8-|
             x16                                 x16     Only play last time^


Please rate this tab well because I know its 99% correct and accurate and thank you. All
other ones sucked really bad. SO ENJOY!!!!!!!!!





Comments


Popular Ashley Parker Angel tabs & chords
I'm Better Chords
Let U Go Chords
A Beautiful Lie Intro Tabs
Feel So Alive Tabs
Let U Go 1 Tabs
Perfect Now Tabs
Apology Ukulele
Happy Anniversary Ukulele
Let U Go Ukulele
Soundtrack To Your Life Ukulele


Song lyrics



↑ Back to top | Tablatures and chords are parodies/interpretations of the original songs. You may use it for private study, scholarship, research or language learning purposes only
© 2014 AZChords.com Contact us | Privacy policy | DMCA | Add/correct tabs | Request tabs | Top 50 tabs