» » »

Only You Bass tabs (ver.1)

Artists:  A B C D E F G H I J K L M N O P Q R S T U V W X Y Z # 

Only You Bass tabs (ver.1)

Ashanti
Rating:
1/5 (2 votes)

Tabs too difficult? Try these video lessons and learn fast.
                Pretty basic bass-line but it sounds nice with the effect in the song

G|---------------------------------|
D|---------------------------------|
A|--------------------9----9-------|
E|-9------9--11--12----------------|


G|---------------------------------|
D|---------------------------------|
A|-------------------9----7--------|
E|-9------9-11-12------------------|


Just repeats the entire song
            
Tabs too difficult? Try these video lessons and learn fast.




comments powered by Disqus
↑ Back to top | Tablatures and chords are parodies/interpretations of the original songs. You may use it for private study, scholarship, research or language learning purposes only