>
 >
Her Lies

Her Lies Guitar Tabs

Asaf Avidan And The Mojos - Her Lies chords, tabs, tablatures, lyrics

Guitar lessons | Add/correct | Request | Top 50 tabs Artists:  A B C D E F G H I J K L M N O P Q R S T U V W X Y Z 0-9

Her Lies Guitar Tabs – Asaf Avidan And The Mojos

CD, Sheet music, Poster

Do you like Her Lies? Share with your friends now
ChordsTabsTabs v2Ukulele
-------------------------------------------------------------------------------
-------------------------------------------------------------------------------

Tuning: Standart EADGBe

This is the way I play it. All from hearing.
If you have any corretions, please sent is to my email.

Intro:
   Dm                    Gm
e|-5-5-----5-5-------5---6-6----6~-------5-5----5-5------5-------------6-----|
B|-6-6-----6-6-------6---8-8----5~-------6-6----6-6------6--8----8-----8-----|
G|-7-7-----7-7-------7---7-7----7~-------7-7----7-7---7--7--7----7---7-------|
D|-7-7-----7-7---7-------5-5----5~-------7-7----7-7---7-----5--------5-------|
A|-5-5-----5-5---5-----------------------5-5----5-5---5----------------------|
E|---------------------------------------------------------------------------|

e|-5-5-----5-5-------5---6-6----6~-------------------------------------------|
B|-6-6-----6-6-------6---8-8----5~-------------------------------------------|
G|-7-7-----7-7-------7---7-7----7~-------------------------------------------|
D|-7-7-----7-7---7-------5-5----5~-------------------------------------------|
A|-5-5-----5-5---5-----------------------------------------------------------|
E|---------------------------------------------------------------------------|
Inrto Ends. The Verses are the same, choose the way you play them ;P

Chorus:
    Bb                                  A
e|--------6----------6------------------5-------------------------------------|
B|--------6----------6------------------5-------------------------------------|
G|--------7----------7------------------6-------------------------------------|
D|--------8----------8------------------7-------------------------------------|
A|--------8----------8------------------7-------------------------------------|
E|--------6----------6------------------5-------------------------------------|
i said baby, you can have them you can have my eyes
e|----------5----------------------5----5-------------------------------------|
B|----------6----------------------5----6-------------------------------------|
G|----------7----------------------7----7-------------------------------------|
D|----------7----------------------7----7-------------------------------------|
A|----------5----------------------5----5-------------------------------------|
E|----------------------------------------------------------------------------|
  I was thinking if she took them i won't see her lies

e|-------6------------5-----------5-5-----5---6-6----6-----------------------|
B|-------6------------5-----------6-6-----6---8-8----8-----------------------|
G|-------7------------6-----------7-7-----7---7-7----7-----------------------|
D|-------8------------7-----------7-7--7------5-5----5-----------------------|
A|-------8------------7-----------5-5--5-------------------------------------|
E|-------6------------5------------------------------------------------------|
but my babe, i can taste, her lies.

Back To verse.

The solo Goes like This
e|---------------------------------------------------------------------------|
B|---------------------------------------------------------------------------|
G|---------------------------------------------------------------------------|
D|---------------------------------------------------------------------------|
A|------------------------------------8-------8--10b0.5-8-10-8---------------|
E|-10--10--10-8--10-8--10-8--10-8--10------10--------------------------------|

e|---------------------------------------------------------------------------|
B|---------------------------------------------------------------------------|
G|---------------------------------------------------------------------------|
D|--------10--------------------------------------------10-----10-12---------|
A|-10b0.5----r10-8-10-8-10-8------10b0.5-8-10-8-10-10/12----12---------------|
E|---------------------------10----------------------------------------------|

e|---------------------------------------------------------------------------|
B|---------------------------------------------------------------------------|
G|--12b14--14r12-10-12-12-12-12-12-12-12b15--10----12b14-12b14--12-----------|
D|----------------------------------------------12---------------------------|
A|---------------------------------------------------------------------------|
E|---------------------------------------------------------------------------|

e|-------10--------------13-15-13----13--15b17-15b17-15b17-------------------|
B|-10-13----13b15-13-15-----------15-----------------------------------------|
G|---------------------------------------------------------------------------|
D|---------------------------------------------------------------------------|
A|---------------------------------------------------------------------------|
E|---------------------------------------------------------------------------|

Thats About It. Hope you like It. Correction to my Email. Enjoy and Keep on RockinG :P
=============================================================================





Comments


Popular Asaf Avidan And The Mojos tabs & chords
Left Behind Chords
Little More Time Chords
Maybe You Are 1 Chords
Turn Of The Tides Under The Northern Lights Chords
Maybe You Are Tabs
Your Anchor 1 Tabs
Everybody Ukulele
Her Lies Ukulele
Sailors Are We Ukulele
Subconscious Overly-familiar Blues Ukulele


Song lyrics



↑ Back to top | Tablatures and chords are parodies/interpretations of the original songs. You may use it for private study, scholarship, research or language learning purposes only
© 2014 AZChords.com Contact us | Privacy policy | DMCA | Add/correct tabs | Request tabs | Top 50 tabs