» » »

Asa, Preacher Man Tabs (ver.1)

Artists:  A B C D E F G H I J K L M N O P Q R S T U V W X Y Z # 

Preacher Man Tabs (ver.1)

Asa Tabs
Rating:
0/5 (0 votes)
Hard to play? Try these video lessons and learn fast.
                


                Asa - Preacher Man



Intro:


e|---------0---------0---------0--------0---0-----|
B|-------7---------5---------0---0----------------|
G|---2/4-----4---2-----2---1--------1/2---1-------|
D|------------------------------------------------|
A|------------------------------------------------|
E|------------------------------------------------|


e|---------0---------0---------0------------------|
B|-------7---------5---------0---0-----0---0------|
G|---2/4-----4---2-----2---1----------------------|
D|-----------------------------------2---0--------|
A|------------------------------------------------|
E|------------------------------------------------|


Preacher man please have some faith
I've come to you cos' I lost my way
Here I am with my bag of shame


e|-------0--------0----------0-------|
B|-----0---0----0---0------7---7-----|
G|---0--------2--------2/4--------4--|
D|-----------------------------------|
A|-----------------------------------|
E|-----------------------------------|

Oh please don't send me away.



Bm      A                   Esus4  E
Yesterday like every other day
Bm          A                 Esus4  E
I had it all but now it's all gone
Bm         A                     Esus4  E
Where are you? Where can I found you?
Em    F#m                     Bm
Oh Lord, please show me your face



            G
I need you now
            A
I need you here
                 Bm   E/G#
I need you everyday
            G
I need you now
            A
I need you here
               E
I need you everywhere
            G
I need you now
            A
I need you here
                 Bm   E/G#
I need you everyday
            G
I need you now
            A
I need you here
               Bm
I need you everywhere



Bm    A                  Esus4  E
Oh Lord, I've been very greedy
Bm          A                          Esus4  E
I worshiped money, I wouldn't help the needy
Bm      A                Esus4  E
Their pains just didn't move me
Bm       A                 Esus4  E
What am I and who have I become?



Bm            A             Esus4  E
I'm reaching out, I need you now
Bm              A               Esus4  E
Come ease this pain, I need you now
Bm               A                 Esus4  E
I'm down on my knees I'm ready to change
Em       F#m               Bm
Save me Lord, I'm feeling low



I need you now
I need you here
I need you everyday
I need you now
I need you here
I need you everywhere


Bm, A, Esus4, E   3x
Em, F#m, Bm


I need you now
I need you here
I need you everyday
I need you now
I need you here
I need you everywhere



Used chords:
             EADGBe
Bm-----------x24432
A------------x02220
Esus4--------022200
E------------022100
Em-----------022000
F#m----------244222
G------------320033
E/G#---------476454
            

comments powered by Disqus
↑ Back to top | Asa Tabs for Preacher Man. Lyrics for acoustic guitar and electric guitar. Tablatures and chords are parodies/interpretations of the original songs. You may use it for private study, scholarship, research or language learning purposes only