» » »

Articolo 31, Gente Che Spera Tabs (ver.3)

Artists:  A B C D E F G H I J K L M N O P Q R S T U V W X Y Z # 

Gente Che Spera Tabs (ver.3)

Articolo 31 Tabs
Rating:
0/5 (0 votes)
Gente Che Spera lessons Tabs too difficult? Try these video lessons and learn fast
                
Legend:
3h5 = Hammer-on
5p3 = Pull-off
3/5 = Bending to
5\3 = Return bending
s5 = Slide to
5~ = Vibrato
[12]= Armoniche
x = Stopped string

[INTRO] 
(0:05)
e ---------------------------------------------|
B ---------------------------------------------|
G ---------------------------------------------|
D ---------0-2-3-3---2-0-----------------------|
A --0--0-----------------3-3----------0-2-3----|
E -----------------------------3-3--3----------|

e -----------------------------------------------|
B -----------------------------------------------|
G -----------------------------------------------|
D ---------0-2-3-3---2-0---2---------------------|
A --0--0-----------------3---3----------2-0------|
E -------------------------------3-3--3-----3----|

[VERSE #1] 
(0:15)    Am          F           C
e --------0-----------1-----------0------------------|
B --------1-----------1-----------1------------------|
G --------2-----------2-----------0------------------|
D --------2--0-2-3-3--3--2-0------2------------------|
A --0--0--0------------------3-3--3---------0-2-3----|
E -----------------------------------3-3--3----------|
          Am          F           C
e --------0-----------1-------------0------------------|
B --------1-----------1-------------1------------------|
G --------2-----------2-------------0------------------|
D --------2--0-2-3-3--3--2-0---2----2------------------|
A --0--0--0------------------3---3--3---------2-0------|
E -------------------------------------3-3--3-----3----|

[VERSE #2]
(1:07) Am         F          C          G
e -----0-0-0-0----1-1-1-1----0-0-0-0----3-3-3-3-----|
B -----1-1-1-1----1-1-1-1----1-1-1-1----3-3-3-3-----|
G -----2-2-2-2----2-2-2-2----0-0-0-0----0-0-0-0-----|
D -----2-2-2-2----3-3-3-3----2-2-2-2----0-0-0-0-----|
A -----0-0-0-0----3-3-3-3----3-3-3-3----2-2-2-2-----|
E ----------------1-1-1-1---------------3-3-3-3-----|
            

comments powered by Disqus
↑ Back to top | Articolo 31 Tabs for Gente Che Spera. Lyrics for acoustic guitar and electric guitar. Tablatures and chords are parodies/interpretations of the original songs. You may use it for private study, scholarship, research or language learning purposes only