» » »

Dhushor Shomoy Tabs (ver.1)

Artists:  A B C D E F G H I J K L M N O P Q R S T U V W X Y Z # 

Dhushor Shomoy Tabs (ver.1)

Artcell
Rating:
5/5 (1 vote)

Hard to play? Try these video lessons and learn fast.
                (Intro)
hey guyz. i've searching for the Dhusor Somoy intro tab for quite sometime. but never
a good one :(. so i decided to tab it myself. I'm posting it here. it's up 2 u to judge.
leave comments, suggestions 0_o. and if u like it plz put in a thx . it means a lot. i'm 
putting the chords bcz theres good ones out there.


Chords used in the intro:


E--3--
B--0--
G--0-- ::Em::
D--2--
A--2--
E--0--


E--3--
B--2--
G--0-- ::C::
D--2--
A--3--
E--0--


E--3--
B--1--
G--2-- ::Em7::
D--2--
A--0--
E--0--

E--3--
B--3--
G--2-- ::Dsus4::
D--0--
A--0--
E--0--

E-----------3----------------3----------------3--------------3P2---3----|
B--0----------------1-----------------1----------------3---------3------|
G-----0-------0--------0-------0---------2------2--------2--------------|
D--2-----2-------2--------2-------2---2----2------2---0----0------------|
A-------------------3---------------------------------------------------|
E-----------------------------------------------------------------------|

E--------3--------------3---------------3------3-----------3-----------|
B-0--------------1---------------1--------1--------3-----3-------------|
G---0------0-------0------0--------2--------2--------2-----------------|
D-X---2------2-------2------2---2----2--------2---0---0----------------|
A----------------3-----------------------------------------------------|
E----------------------------------------------------------------------|

**after playing this 2nd guitar comes in and the intro is played like before**


2nd guitar:


E---------------------------------------------------------------------|
B---------------------8-----------------7------------------5----------|
G----------------9------------------7------------------5--------------|
D-----------9-------------------7------------------5------------------|
A------7-------------------5-------------------3----------------------|
E---------------------------------------------------------------------|

thats all.
            
Hard to play? Try these video lessons and learn fast. | Correct




comments powered by Disqus
↑ Back to top | Tablatures and chords are parodies/interpretations of the original songs. You may use it for private study, scholarship, research or language learning purposes only