» » »

Arsonists Get All The Girls, To Get Eaten By The Rats Tabs (ver.1)

Artists:  A B C D E F G H I J K L M N O P Q R S T U V W X Y Z # 

To Get Eaten By The Rats Tabs (ver.1)

Arsonists Get All The Girls Tabs
Rating:
0/5 (0 votes)
To Get Eaten By The Rats lessons Tabs too difficult? Try these video lessons and learn fast
                -------------------------------------------------------------------------------
                        To Get Eaten By The Rats – Arsonists Get All The Girls
-------------------------------------------------------------------------------


A very short Grindcore style song, but cool nonetheless


Tuning:Drop C (CGCFAD)




                        Let open ring
e|---------------------------------------------------------------------------|
B|---------------------------------------------------------------------------|
G|---------------------------------------------------------------------------|
D|--3----3--5--6----6-5-0~---------------------------------------------------|
A|--3----3--5--6----6-5-0~---------------------------------------------------|
E|--3----3--5--6----6-5-0~---------------------------------------------------|

                        Tremelo Picking 
e|---------------------------------------------------------------------------|
B|---------------------------------------------------------------------------|
G|---------------------------------------------------------------------------|
D|--3----3--5--6----6-5------------------------------------------------------|
A|--3----3--5--6----6-5--555666555----555666555------------------------------|
E|--3----3--5--6----6-5------------6------------6----------------------------|

                        Tremelo Picking 
e|---------------------------------------------------------------------------|
B|---------------------------------------------------------------------------|
G|---------------------------------------------------------------------------|
D|--3----3--5--6----6-5------------------------------------------------------|
A|--3----3--5--6----6-5--555666555----555666555------------------------------|
E|--3----3--5--6----6-5------------6------------6----------------------------|


                                    PM . . .  . . .  . . . (on open notes)
e|---------------------------------------------------------------------------|
B|---------------------------------------------------------------------------|
G|---------------------------------------------------------------------------|
D|--3----3--5--6----6-5---0--------------------------------------------------|
A|--3----3--5--6----6-5---0--------------------------------------------------|
E|--3----3--5--6----6-5---0--0-0-0--0-0-0--0-0-0-----------------------------|


                                   PM . . .  . . .  . . . (on open notes)
e|---------------------------------------------------------------------------|
B|---------------------------------------------------------------------------|
G|---------------------------------------------------------------------------|
D|--3----3--5--6----6-5---0--------------------------------------------------|
A|--3----3--5--6----6-5---0--------------------------------------------------|
E|--3----3--5--6----6-5---0--0-0-0--0-0-0--0-0-0-----------------------------|


                        Tremelo Picking 
e|---------------------------------------------------------------------------|
B|---------------------------------------------------------------------------|
G|---------------------------------------------------------------------------|
D|--3----3--5--6----6-5------------------------------------------------------|
A|--3----3--5--6----6-5--555666555----555666555------------------------------|
E|--3----3--5--6----6-5------------6------------6----------------------------|


                        Tremelo Picking 
e|---------------------------------------------------------------------------|
B|---------------------------------------------------------------------------|
G|---------------------------------------------------------------------------|
D|--3----3--5--6----6-5------------------------------------------------------|
A|--3----3--5--6----6-5--555666555----555666555------------------------------|
E|--3----3--5--6----6-5------------6------------6----------------------------|


                          Don’t let open ring   
e|---------------------------------------------------------------------------|
B|---------------------------------------------------------------------------|
G|---------------------------------------------------------------------------|
D|-3-3-3-3--6-6-6-6--0-------------------------------------------------------|
A|-3-3-3-3--6-6-6-6--0-------------------------------------------------------|
E|-3-3-3-3--6-6-6-6--0-------------------------------------------------------|

During Chant Part:
Repeat x4

e|---------------------------------------------------------------------------|
B|---------------------------------------------------------------------------|
G|---------------------------------------------------------------------------|
D|---------------------------------------------------------------------------|
A|--3------------6-5---------------------------------------------------------|
E|--3-0000000000-6-5-00000000000---------------------------------------------|



Frantically pound this chord for the last few seconds
e|---------------------------------------------------------------------------|
B|---------------------------------------------------------------------------|
G|---------------------------------------------------------------------------|
D|---------------------------------------------------------------------------|
A|0000000000000000000000000000000000000--------------------------------------|
E|0000000000000000000000000000000000000--------------------------------------|


************************************

| /   slide up
| \   slide down
| h   hammer-on
| p   pull-off
| ~   vibrato
| +   harmonic
| x   Mute note
| b   Bend
| pb  Pre-bend
| br  Bend release
| pbr Pre-bend release
| brb Bend release bend

************************************
            

comments powered by Disqus
↑ Back to top | Arsonists Get All The Girls Tabs for To Get Eaten By The Rats. Lyrics for acoustic guitar and electric guitar. Tablatures and chords are parodies/interpretations of the original songs. You may use it for private study, scholarship, research or language learning purposes only