» » »

Arsonists Get All The Girls, Symphony Of Baseball Bats Tabs (ver.1)

Artists:  A B C D E F G H I J K L M N O P Q R S T U V W X Y Z # 

Symphony Of Baseball Bats Tabs (ver.1)

Arsonists Get All The Girls Tabs
 Rating:
3.4/5 (5 votes)
Symphony Of Baseball Bats lessons Tabs too difficult? Try these video lessons and learn fast
                -------------------------------------------------------------------------------
                             Symphony of Baseball Bats by Arsonists Get All The Girls
-------------------------------------------------------------------------------

Tuning:Drop C

|------------------------------------------------------------------------------------------------|
|------------------------------------------------------------------------------------------------|
|------------------------------------------------------------------------------------------------|
|-12---7-----3-----5--5/7---0-----------12---7---3---5--5/7---0--0---00--0---0--0--00------------|
|-12---7-----3-----5--5/7---0---x2------12---7---3---5--5/7---0--0---00--0---0--0--00----x7------|
|-12---7-----3-----5--5/7---0-----------12---7---3---5--5/7---0--0---00--0---0--0--00------------|

|--------------------------------------------------------------------------|
|--------------------------------------------------------------------------|
|--------------------------------------------------------------------------|
|-12-12-12----33-33----12-12-12----33-22-----------------------------------|
|-12-12-12----33-33----12-12-12----33-22-----x4----------------------------|
|-12-12-12----33-33----12-12-12----33-22-----------------------------------|

|-------------------------------------------------------------------------------------------|
|-------------------------------------------------------------------------------------------|
|-------------------------------------------------------------------------------------------|
|-000--000---------------000--000----------------000--000-----------------------------------|
|-000--000---5----7--8---000--000---7--8---10----000--000---5--7--8--10--8787---5-------x3--|
|-000--000---------------000--000----------------000--000-----------------------------------|

|---------------------------------------------------------------------------------------------|
|---------------------------------------------------------------------------------------------|
|---------------------------------------------------------------------------------------------|
|-000--000-------------000--000---------------000-000-----------------------------------------|
|-000--000---5---7-8---000--000---10---8--7---000-000---5--7--8--10--8787---5-----x2----------|
|-000--000-------------000--000---------------000-000-----------------------------------------|

|------------------------------------------------------------------------------------------------|
|------------------------------------------------------------------------------------------------|
|------------------------------------------------------------------------------------------------|
|-0000000000000000---5-5-5-5---3-3-3h5p3--------0--3h5p3--0--33--55---0--3h5p3--0--33--77--------|
|-0000000000000000---5-5-5-5---3-3-3h5p3---x4---0--3h5p3--0--33--55---0--3h5p3--0--33--77----x4--|
|-0000000000000000---5-5-5-5---3-3-3h5p3--------0--3h5p3--0--33--55---0--3h5p3--0--33--77--------|

|------------------------------------------------------------------------------------|
|------------------------------------------------------------------------------------|
|------------------------------------------------------------------------------------|
|-00----------0000-0000--------------------------------------------------------------|
|-00---x4-----0000-0000---x8--------7---7/8-8---8/10-10---10\7-7----x2---------------|
|-00----------0000-0000--------------------------------------------------------------|

|------------------------------------------------------------------------------------------|
|------------------------------------------------------------------------------------------|
|------------------------------------------------------------------------------------------|
|--------------------------------0000-0000----------------0000-0000------------------------|
|-7777--8888----5\3/5----x4------0000-0000----5\3/5--x3---0000-0000------------------------|
|--------------------------------0000-0000----------------0000-0000------------------------|


| /  slide up
| \  slide down
| h  hammer-on
| p  pull-off
| ~  vibrato
| +  harmonic
| x  Mute note
===============================================================================
            
Submit corrections

comments powered by Disqus
↑ Back to top | Arsonists Get All The Girls Tabs for Symphony Of Baseball Bats. Lyrics for acoustic guitar and electric guitar. Tablatures and chords are parodies/interpretations of the original songs. You may use it for private study, scholarship, research or language learning purposes only