» » »

Scobra Vs Cupcake Battle Of The Buldge Tabs (ver.1)

Artists:  A B C D E F G H I J K L M N O P Q R S T U V W X Y Z # 

Scobra Vs Cupcake Battle Of The Buldge Tabs (ver.1)

Arsonists Get All The Girls
Rating:
4/5 (11 votes)

Hard to play? Try these video lessons and learn fast.
                Scobra Vs. Cupcake 
Arsonists Get All The Girls

Drop C Tuning [CGCFAD] LOW TO HIGH

MOST OF ITS RIGHT FEEL FREE TO SEND ME CORRECTIONS

INTRO

D[------------------------------------------------------------------]
A[------------------------------------------------------------------]
F[------------------------------------------------------------------]
C[-------------------------------------------------------7----------]
G[--0-----8-7-8-3-5-3-5---0----8-7-8-3-5-3-5----8---8-7-8--8-7h8p7--]
C[--0---------------------0---------------------8-------------------]


INTRO CONT.
       [REPEAT GO BACK TO BEGINNING]
D[---------------------------------]
A[---------------------------------]
F[---------------------------------]X4
C[------------7--------------------]
G[--8---8-7-8---8-7h8p7------------]
C[--8------------------------------]



                                  [REPEAT]
D[---------------------------------------]
A[---------------------------------------]
F[---------------------------------------]X2
C[---------------------------------------]
G[--0-0-000--4-44-4444--0-0-000--444/10--]
C[--0-0-000--4-44-4444--0-0-000--444/10--]




DRUM SOLO
AND 
RANDOM ROBOT NOISE



                                                             [REPEAT]
D[------------------------------------------------------------------]
A[------------------------------------------------------------------]
F[------------------------------------------------------------------]X2
C[------------------------------------------------------------------]
G[--0000000-4--0000000-3-2-0-3-2-0-0000000-4--0000000-3-2-0-3-2-0---]
C[--0000000-4--0000000-3-2-0-3-2-0-0000000-4--0000000-3-2-0-3-2-0---]



                 
[STRUMMING IS 14 NOT 1-4 AND 12 NOT 1-2 ETC.]    [REPEAT]
D[------------------------------------------------------]
A[------------------------------------------------------]
F[---10-9-10-12-10-12-14141414-12121212-101010h12p10-9--]X2
C[------------------------------------------------------]
G[------------------------------------------------------]
C[------------------------------------------------------]



 [STRUMMING PATTER IS SAME AS BEFORE]                [REPEAT]
D[----------------------------------------------------------]
A[----------------------------------------------------------]
F[---14-12-14-15-14-15-17171717-15151515-14141414h15p14-12--]X2
C[----------------------------------------------------------]
G[----------------------------------------------------------]
C[----------------------------------------------------------]





D[---------]
A[---------]
F[---------]
C[---------]
G[--0-3-5--]
C[--0-3-5--]



            [REPEAT]
[17-20th TIME SLOW IT DOWN]
D[-----------------]
A[-----------------]
F[-----------------]X20
C[-----------------]
G[--4-1-3-4-3-4-1--]
C[--4-1-3-4-3-4-1--]



D[---------------------------------]
A[---------------------------------]
F[--77777--10101010----------------]x4
C[--xxxxx--x-x-x-x-----------------]
G[--55555--8-8-8-8--0-5555-0-3333--]
C[------------------0-5555-0-3333--]




D[-----------------------------------]
A[-----------------------------------]
F[--77777--10101010------------------]
C[--xxxxx--x-x-x-x-------------------]
G[--55555--8-8-8-8--0-5555-55555555--]
C[------------------0-5555-55555555--]



                                                           [REPEAT]
D[----------------------------------------------------------------]
A[----------------------------------------------------------------]
F[--5-5h6p3---------5-5h6p3----------5-5h6p3----------5-3-------3*]x6
C[----------5-3-3-5---------5-3-5-3----------5-3-3-5------0-3-5---]
G[----------------------------------------------------------------]
C[----------------------------------------------------------------]



[SOLO]


D[----------------------------------------------------------------------]
A[--------------------------------------------------------------13b-13b-]
F[-------------3-5-5b-5b/12-12-15-12----12-15-12----12-15-12------------]
C[---------3-5-----------------------15----------15----------15---------]
G[--3b-3-5--------------------------------------------------------------]
C[----------------------------------------------------------------------]




D[------------13b-13-13b--]
A[--13-13b-13-------------]
F[------------------------]
C[------------------------]
G[------------------------]
C[------------------------]



GO, STEP BACK, TAKE AIM, AND PULL THE TRIGGER!

                         [REPEAT]
D[------------------------------]
A[------------------------------]
F[------------------------------]x3
C[------------------------------]
G[--5-55-55-55-0-3-00-3-0-33-0--]
C[--5-55-55-55-0-3-00-3-0-33-0--]
            
Hard to play? Try these video lessons and learn fast. | Correct




comments powered by Disqus
↑ Back to top | Tablatures and chords are parodies/interpretations of the original songs. You may use it for private study, scholarship, research or language learning purposes only