» » »

Arsonists Get All The Girls, City Of Angels Cakewalk Tabs (ver.1)

Artists:  A B C D E F G H I J K L M N O P Q R S T U V W X Y Z # 

City Of Angels Cakewalk Tabs (ver.1)

Arsonists Get All The Girls Tabs
Rating:
0/5 (0 votes)
City Of Angels Cakewalk lessons Tabs too difficult? Try these video lessons and learn fast
                
RIP Pat Mason, you will be missed

Drop C Tuning [CGCFAD]

INTRO (Keyboard)

C G# C G

D[-------------------------------]
A[-------------------------------]
F[-------------------------------]
C[-12-----12---------------------]
G[----13~----12~-----------------]
C[-------------------------------]

INTRO

D[--------------------------------------------]
A[--------------------------------------------]
F[--------------(x16)-------------------------]
C[-0000-0-00-00-------------------------------]
G[-0000-0-00-00-------------------------------]
C[-0000-0-00-00--------15/--------------------]

D[--------------------------------------------]
A[--------------------------------------------]
F[------------(x4)----------------------------]
C[-12-8-12-7~---------------------------------]
G[-12-8-12-7~---------------------------------]
C[-12-8-12-7~---------------------------------]

D[--------------------------------------------]
A[--------------------------------------------]
F[------------(x4)----------------------------]
C[-12-8-12-7~---------------------------------]
G[--------------------------------------------]
C[--------------------------------------------]

D[--------------------------------------------]
A[--------------------------------------------]
F[------------(x4)----------------------------]
C[-12-8-12-7~---------------------------------]
G[-12-8-12-7~---------------------------------]
C[-12-8-12-7~---------------------------------]

D[------------------------------------------------------------------]
A[----------------(WE FACE THE WAYS OF SUCCESS!)--------------------]
F[------------------------------------------------------------------]
C[-0~---------------------------------------------------------------]
G[-0~---------------------------------------------------------------]
C[-0~---------------------------------------------------------------]

------------------

D[------------------------------------------------------------------]
A[--------------------------------------------------(x4)------------]
F[-(Tremello)-------------------------------------------------------]
C[---------------------------4-1-3------------4-1-3-----------------]
G[-5-8-7-0-1-------5-8-7-0-1-4-1-3--5-8-7-0-1-4-1-3-----------------]
C[-----------4-1-3-----------4-1-3------------4-1-3-----------------]

D[------------------------------------------------------------------]
A[------------------------------------------------------------------]
F[------------------------------------------------------------------]
C[-0-1-0-3-0-1-3-1--------------------------------------------------]
G[-0-1-0-3-0-1-3-1--------------------------------------------------]
C[-0-1-0-3-0-1-3-1--------------------------------------------------]

-------------------

D[------------------------------------------------------------------]
A[------------------------------------------------------------------]
F[---(Tremello)------------------------------(x2)-------------------]
C[------------------------------------------------------------------]
G[-5~---8-7---0-1---12-10-8-7-8-------------------------------------]
C[-0~---------------------------------------------------------------]

D[------------------------------------------------------------------]
A[-------------------------------------------(x2)-------------------]
F[-7~---9h10p9---2-3~---14-12-10-9-10-------------------------------]
C[-0~-0--------0------0---------------------------------------------]
G[------------------------------------------------------------------]
C[------------------------------------------------------------------]

D[------------------------------------------------------------------]
A[------------------------------------------(x2)--------------------]
F[-10~---12h14p12---5-7~---17-15-14-12-14---------------------------]
C[--0~-0----------0------0------------------------------------------]
G[------------------------------------------------------------------]
C[------------------------------------------------------------------]

D[---------------------------------]
A[---------------------------------]
F[---(x32)-------------------------]
C[-7-------------------------------]
G[-7-------------------------------]
C[-7-------------------------------]

D[---------------------------------------------]
A[-------------------------(x2)----------------]
F[---x16---x8----x8----------------------------]
C[-7-----9----10-------------------------------]
G[-7-----9----10-------------------------------]
C[-7-----9----10-------------------------------]

                           PM    PM
D[------------------------------------------------------------------]
A[----------------------------------------------(X4)----------------]
F[------------------------------------------------------------------]
C[-3-3-3-3-33--5-5-5-5-55--0-0-0-0-0-0--33333333--------------------]
G[-3-3-3-3-33--5-5-5-5-55--0-0-0-0-0-0--33333333--------------------]
C[-3-3-3-3-33--5-5-5-5-55--0-0-0-0-0-0--33333333--------------------]

D[-----------------------]
A[-----------------------]
F[-----------------------]
C[-0~--------------------]
G[-0~--------------------]
C[-0~--------------------]

D[-------------------------------------------------]
A[-------------------------------------------------]
F[-------------------------------------------------]
C[-0-1-0-1-3-1-0-1-4-3-0-1-0-0-0-1-----------------]
G[-0-1-0-1-3-1-0-1-4-3-0-1-0-0-0-1-----------------]
C[-0-1-0-1-3-1-0-1-4-3-0-1-0-0-0-1-----------------]

D[------------------------------------------]
A[------------------------------------------]
F[------------------------------------------]
C[-0-1-0-1-3-1-0-1-4~-7~-10/----------------]
G[-0-1-0-1-3-1-0-1-4~-7~-10/----------------]
C[-0-1-0-1-3-1-0-1-4~-7~-10/----------------]

D[-------------------------------------------------]
A[-------------------------------------------------]
F[-------------------------------------------------]
C[-0-1-0-1-3-1-0-1-4-3-0-1-0-0-0-1-----------------]
G[-0-1-0-1-3-1-0-1-4-3-0-1-0-0-0-1-----------------]
C[-0-1-0-1-3-1-0-1-4-3-0-1-0-0-0-1-----------------]

D[-------------------------]
A[-------------------------]
F[-------------------------]
C[-0-1-0-1-----------------]
G[-0-1-0-1-----------------]
C[-0-1-0-1-----------------]

(Keyboard Break)

C D# D A# C D# D G#(high) [this riff plays the rest of song and ends on C]

D[------------------------------------------------------------------]
A[------------------------------------------------------------------]
F[------------------------------------------------------------------]
C[---------------8--------------------------------------------------]
G[-5-8-7-3-5-8-7----------------------------------------------------]
C[------------------------------------------------------------------]

(Back to Guitar)

D[------------------------------------------------------------------]
A[------------------------------------------------------------------]
F[------------------------------------------------------------------]
C[-0~---0~---0~---0-------------------------------------------------]
G[-0~---0~---0~---0-------------------------------------------------]
C[-0~---0~---0~---0-------------------------------------------------]

--------------------

D[-------------------------------------------------]
A[---------------------------------(x4)------------]
F[-------------------------------------------------]
C[-0-1-0-1-3-1-0-1-4-3-0-1-0-0-0-1-----------------]
G[-0-1-0-1-3-1-0-1-4-3-0-1-0-0-0-1-----------------]
C[-0-1-0-1-3-1-0-1-4-3-0-1-0-0-0-1-----------------]

D[------------------------------------------]
A[------------------------------------------]
F[------------------------------------------]
C[-0-1-0-1-3-1-0-1-4~-7~-10/----------------]
G[-0-1-0-1-3-1-0-1-4~-7~-10/----------------]
C[-0-1-0-1-3-1-0-1-4~-7~-10/----------------]

--------------------

D[-------------------------------------------------]
A[------------------------------(x2)---------------]
F[-(Tremellow out)---------------------------------]
C[-------------------------------------------------]
G[-------------------------------------------------]
C[-0-1-0-1-3-1-0-1-4-3-0-1-0-0-0-1-----------------]

D[------------------------------------------]
A[------------------------------------------]
F[------------------------------------------]
C[------------------------------------------]
G[------------------------------------------]
C[-0-1-0-1-3-1-0-1-4~-7~-10/----------------]

D[-------------------------------------------------]
A[-------------------------------------------------]
F[-------------------------------------------------]
C[-0-1-0-1-3-1-0-1-4-3-0-1-0-0-0-1-----------------]
G[-0-1-0-1-3-1-0-1-4-3-0-1-0-0-0-1-----------------]
C[-0-1-0-1-3-1-0-1-4-3-0-1-0-0-0-1-----------------]

D[-----------------]
A[-----------------]
F[-----------------]
C[-0~--------------]
G[-0~--------------]
C[-0~--------------]
            
Submit corrections

comments powered by Disqus
↑ Back to top | Arsonists Get All The Girls Tabs for City Of Angels Cakewalk. Lyrics for acoustic guitar and electric guitar. Tablatures and chords are parodies/interpretations of the original songs. You may use it for private study, scholarship, research or language learning purposes only