» » »

Arsis, Elegant And Perverse Tabs (ver.1)

Artists:  A B C D E F G H I J K L M N O P Q R S T U V W X Y Z # 

Elegant And Perverse Tabs (ver.1)

Arsis Tabs
 Rating:
4.2/5 (5 votes)
Elegant And Perverse lessons Tabs too difficult? Try these video lessons and learn fast
1
                This is all I have for now but this time I promise, I will have have the rest of it up. 
the second solo, I'm not that good yet.)

\=slide up

Part 1
|-------------------------------------------------------------------|2x
|-------------------------------------------------------------------|
|-------------------------------------------------------------------|
|-----------------88887777--------------7---7----7--------------6---|
|-----555588887777--------888877775555--4---4---4\5-------------4---|
|-----------------------------------------0---0-----0-0-000-000-----|
      ********************************    *   *     * * *** ***
_______________________________________________________________________
Part 2
|---------------------------------------------------------------|
|---------------------------------------------------------------|
|---------------------------------------------------------------|
|---0---------------------0-----0---------------------3-----0---|
|---0-----1\3-----1\3-----1-----0-----1\3-----1\3-----4-----0---|
|---0-000-----000-----000---000-0-000-----000-----000---000-0---|
      ***     ***     ***   ***  ***     ***     ***   ***

|-------------------------------------------------------------|
|-------------------------------------------------------------|
|-------------------------------------------------------------|
|-----------------------1-----0---------------------3-2-3-0---|
|-------1\3-----1\3-----0-----0-----1\3-----1\3-----1-0-3-0---|
|---000-----000-----000---000-0-000-----000-----000-----3-0---|
    ***     ***     ***   ***   ***     ***     *** * * * *
2x (Whole thing)
_______________________________________________________________________

Part 3
|--------------------------------------------------------------|
|-----------------------------------------------------2h3p2----|
|----------------------------------------------------------1---|
|---0------------3---2-----2h3-0------------1---6--------------|
|---0------------1---0-0-0-0h1-0------------3---4--------------|
|---0-0000332200---0---0-0-----0-0000332200---0---0-3----------|
      **********   *   * *       **********   *

|-----------------------------------------------------------|
|-----------------------------------------------------------|
|-----------------------------------------------------------|
|---0------------1---2-----2h3-0------------1---6-----6\7---|
|---0------------3---0-0-0-0h1-0------------3---4-0-0-4\5---|
|---0-0000332200---0---0-0-----0-0000332200---0---0-0-------|
      **********   *   * *       **********   *   * *


Okay, folks, I gotta go but I swear, I do have the rest of the song, it will, WILL, be 
later.
            
Submit corrections

comments powered by Disqus
↑ Back to top | Arsis Tabs for Elegant And Perverse. Lyrics for acoustic guitar and electric guitar. 1 Tablatures and chords are parodies/interpretations of the original songs. You may use it for private study, scholarship, research or language learning purposes only