>
 >
Closer To Cold

Closer To Cold Guitar Tabs

Arsis - Closer To Cold chords, tabs, tablatures, lyrics

Guitar lessons | Add/correct | Request | Top 50 tabs Artists:  A B C D E F G H I J K L M N O P Q R S T U V W X Y Z 0-9

Closer To Cold Guitar Tabs – Arsis

CD, Sheet music, Poster

Do you like Closer To Cold? Share with your friends now
Tabs

Solo:

                       T                 T                 T        
      |--3--|  |--3--|  |--3--|  |--3--|  |--3--|  |--3--|  |--3--|  |--3--|
      S  S  S  S  S  S  S  S  S  S  S  S  S  S  S  S  S  S  S  S  S  S  S  S
D||--19-20-19-15-19-20-24-20-19-15-18-19-22-19-18-15-------------------------|
A||--------------------------------------------------19-20-24-20-19-15-18-20-|
F||--------------------------------------------------------------------------|
C||--------------------------------------------------------------------------|
G||--------------------------------------------------------------------------|
D||--------------------------------------------------------------------------|

   T           T           T           T          T           T
   |--3--|  |--3--|  |--3--|  |--3--|  |--3--|  |--3--|  |--3--|  |--3--|
   S  S  S  S  S  S  S  S  S  S  S  S  S  S  S  S  S  S  S  S  S  S  S  S
--------------------------------------------------------------------------|
--23-20-17-15-23-20-17-15-23-20-17-15-20-17-15-12-------------------------|
--------------------------------------------------21-16-15-12-19-16-15-12-|
--------------------------------------------------------------------------|
--------------------------------------------------------------------------|
--------------------------------------------------------------------------|


   W                  
---------------------|
---------------------|
---------------------|
--12b----------------|
---------------------|
---------------------|


               T                          
   |--3--|  |--|   |---3---|              
   S  S  S  S  E   E   E   E   H          
--------12-15-22--15--14--15-------------|
-----14-----------------------15~--------|
--15-------------------------------------|
-----------------------------------------|
-----------------------------------------|
-----------------------------------------|


  |---3--|  |---3--|  |--3--|          
  E   E  E  E   E  E  E  E  E   Q      
--------------------------------------|
--------------------------------------|
----------------------9-----9--12~----|
------------9------9-----9------------|
--7--10--7-----10---------------------|
--------------------------------------|


   |-----3-----|     |-----3-----|     
   Q     Q     Q     Q     Q     Q     
--------------------------------------|
--------15----------11----------13----|
--11----------14----------13----------|
--------------------------------------|
--------------------------------------|
--------------------------------------|


   W                  
--15b----------------|
--12b----------------|
---------------------|
---------------------|
---------------------|
---------------------|


   |--3--|  |--3--|  |--3--|  |--3--|  |--3--|  |--3--|  |--3--|  |--3--|
   S  S  S  S  S  S  S  S  S  S  S  S  S  S  S  S  S  S  S  S  S  S  S  S
--19-20-19-17-------------------------------------------------------------|
--------------20-19-19-20-19-17-------------------------------------------|
--------------------------------19-17-17-19-17-16-------------------------|
--------------------------------------------------19-17-17-19-17-16-------|
--------------------------------------------------------------------19-17-|
--------------------------------------------------------------------------|


   |--3--|                   
   S  S  S E  H.             
---------------------------||
---------------------------||
---------------------------||
---------------------------||
--15-14b-L-L--L------------||
---------------------------||


Rhythm under solo:

          |--3--|   |--3--|  |--3--|   
     Q    E  E  E   E  E  E  E  E  E   
D||-----------------------------------|
A||-----------------------------------|
F||-----------------------------------|
C||----------------10-----9-----------|
G||--2--------------8-----7-----9-----|
D||--0----0--0--0------0-----0--7--0--|


       |--3--|  |---3--|  |---3---|   
  Q    E  E  E  E   E  E  E   E   E   
-------------------------------------|
-------------------------------------|
-------------------------------------|
-------------------------------------|
--8-------------8s--7-----5s--4s--5--|
--6----6--6--6--6s--5--0--3s--2s--3--|


       |--3--|   |--3--|  |--3--|   
  Q    E  E  E   E  E  E  E  E  E   
-----------------------------------|
-----------------------------------|
-----------------------------------|
----------------10-----9-----------|
--2--------------8-----7-----9-----|
--0----0--0--0------0-----0--7--0--|


         PM        PM        PM             
  |---3--|  |---3--|  |---3--|  |---3---|   
  E   E  E  E   E  E  E   E  E  E   E   E   
-------------------------------------------|
-------------------------------------------|
-------------------------------------------|
-------------------------------------------|
--9s--8-----8s--7-----7s--6-----5s--4s--5--|
--7s--6--0--6s--5--0--5s--4--0--3s--2s--3--|


       |--3--|   |--3--|  |--3--|   
  Q    E  E  E   E  E  E  E  E  E   
-----------------------------------|
-----------------------------------|
-----------------------------------|
----------------10-----9-----------|
--2--------------8-----7-----9-----|
--0----0--0--0------0-----0--7--0--|


       |--3--|  |---3--|  |---3---|   
  Q    E  E  E  E   E  E  E   E   E   
-------------------------------------|
-------------------------------------|
-------------------------------------|
-------------------------------------|
--8-------------8s--7-----5s--4s--5--|
--6----6--6--6--6s--5--0--3s--2s--3--|


       |--3--|   |--3--|  |--3--|   
  Q    E  E  E   E  E  E  E  E  E   
-----------------------------------|
-----------------------------------|
-----------------------------------|
----------------10-----9-----------|
--2--------------8-----7-----9-----|
--0----0--0--0------0-----0--7--0--|


         PM        PM        PM             
  |---3--|  |---3--|  |---3--|  |---3---|   
  E   E  E  E   E  E  E   E  E  E   E   E   
-------------------------------------------|
-------------------------------------------|
-------------------------------------------|
-------------------------------------------|
--9s--8-----8s--7-----7s--6-----5s--4s--5--|
--7s--6--0--6s--5--0--5s--4--0--3s--2s--3--|


  W                 
---------------------||
---------------------||
---------------------||
---------------------||
--2------------------||
--0------------------||


Duration Legend
---------------
W - whole
H - half
Q - quarter
E - 8th
S - 16th
T - 32nd
X - 64th
. - note dotted
|-n-|  - n-tuplets


Tablature Legend
----------------
L - tied note
x - dead note
g - grace note
(n) - ghost note
> - accentuded note
NH - natural harmonic
AH - artificial harmonic
TH - tapped harmonic
SH - semi harmonic
PH - pitch harmonic
h - hammer on
p - pull off
b - bend
br - bendRelease
pb - preBend
pbr - preBendRelease
brb - bendReleaseBend
\n/ - tremolo bar dip
\n - tremolo bar dive
-/n - tremolo bar Release up
/n\ - tremolo bar inverted dip
/n - tremolo bar return
-\n - tremolo bar Release down
S - shift slide
s - legato slide
/ -  slide into from below or out of upwards
\ -  slide into from above or out of downwards
~ - vibrato
W - wide vibrato
tr - trill
TP - tremolo picking
T - tapping
S - slap
P - pop
< - fade in
^ - brush up
v - brush down





Comments


Popular Arsis tabs & chords
We Are The Nightmare Bass Tabs
A Diamond For Disease Tabs
Elegant And Perverse Tabs
Servants To The Night Tabs
The Face Of My Innocence Tabs
The Face Of My Innocence 1 Tabs
We Are The Nightmare Tabs
We Are The Nightmare 1 Tabs


Song lyrics



↑ Back to top | Tablatures and chords are parodies/interpretations of the original songs. You may use it for private study, scholarship, research or language learning purposes only
© 2014 AZChords.com Contact us | Privacy policy | DMCA | Add/correct tabs | Request tabs | Top 50 tabs