>
 >
A Diamond For Disease

A Diamond For Disease Guitar Tabs

Arsis - A Diamond For Disease chords, tabs, tablatures, lyrics

Guitar lessons | Add/correct | Request | Top 50 tabs Artists:  A B C D E F G H I J K L M N O P Q R S T U V W X Y Z 0-9

A Diamond For Disease Guitar Tabs – Arsis

CD, Sheet music, Poster

Do you like A Diamond For Disease? Share with your friends now
Tabs
Not the complete song but various parts of it. The times are indicated for which riffs. 
got this from a power tab I randomly found on the internet. I figured I'd tab it out. 
thanks to the author (whoever you are)! Enjoy!

Tuning Drop C (C G C F A D)

Intro :38 - 1:01 (Play twice)
Guitar 1
|---------------------------------|
|---------------------------------|
|-7-------------------------------|
|-----------------8---------------|
|-5-------------------------------|
|-----------------8---------------|
|
Guitar 2
|----------------------------------|
|----------------------------------|
|-7-------10---------------7-------|
|----------------------------------|
|-5-------8----------------5-------|
|----------------------------------|

Guitar 1
|----------------------------------|
|----------------------------------|
|-10---------------7---------------|
|----------------------------------|
|-8----------------5---------------|
|----------------------------------|
|
Guitar 2
|---------------------------------|
|---------------------------------|
|---------------------------------|
|---------8----------------7------|
|---------------------------------|
|---------8----------------7------|

Guitar 1
|----------------------------------|
|----------------------------------|
|----------------------------------|
|-7----------------10--------------|
|----------------------------------|
|-7----------------10--------------|
|
Guitar 2
|----------------------------------|
|----------------------------------|
|----------------------------------|
|---------10---------------7-------|
|----------------------------------|
|---------10---------------7-------|

Guitar 1
|---------------------------------|
|---------------------------------|
|-9---------------7---------------|
|---------------------------------|
|-7---------------5---------------|
|---------------------------------|
|
Guitar 2
|---------------------------------|
|---------------------------------|
|---------------------------------|
|-----------------7---------------|
|---------------------------------|
|-----------------7---------------|

1:01 - 1:22 (Play twice)
Guitar 1
|-----------------|-----------------|-----------------|-----------------|
|-----------------|-----------------|-----------------|-----------------|
|-----------------|-----------------|-----------------|-----------------|
|-----------------|-----------------|-----------------|-----------------|
|---------1-------|---------1-------|---------1-------|-5-3-1-0-7-5-3-1-|
|-3-2-3-5---5-3-2-|-3-2-3-5---5-3-2-|-3-2-3-5---5-3-2-|-----------------|
|
Guitar 2
|-----------------|-----------------|-----------------|-----------------|
|-----------------|-----------------|-----------------|-----------------|
|-----------------|-----------------|-----------------|-----------------|
|-----------------|-----------------|-----------------|-5-3-5-7-5-3-5-7-|
|-1-0-1-3-5-3-1-0-|-1-0-1-3-5-3-1-0-|-1-0-1-3-5-3-1-0-|-----------------|
|-----------------|-----------------|-----------------|-----------------|

Guitar 1
|-----------------------------|
|-----------------------------|
|-----------------------------|
|-----------------------------|
|-1h4p1----------4h7p4--------|
|-----------------------------|
|
Guitar 2
|-----------------------------|
|-----------------------------|
|-----------------------------|
|--------8h11p8---------5h8p5-|
|-----------------------------|
|-----------------------------|

Guitar 1
|-----------------|-----------------|-----------------|
|-----------------|-----------------|-----------------|
|-----------------|-----------------|-----------------|
|-----------------|-----------------|-----------------|
|---------1-------|---------1-------|---------1-------|
|-3-2-3-5---5-3-2-|-3-2-3-5---5-3-2-|-3-2-3-5---5-3-2-|
|
Guitar 2
|-----------------|-----------------|-----------------|
|-----------------|-----------------|-----------------|
|-----------------|-----------------|-----------------|
|-----------------|-----------------|-----------------|
|-1-0-1-3-5-3-1-0-|-1-0-1-3-5-3-1-0-|-1-0-1-3-5-3-1-0-|
|-----------------|-----------------|-----------------|

Guitar 1
|------------------------------|------------------------------|
|------------------------------|------------------------------|
|------------------------------|------------------------------|
|------------------------------|------------------------------|
|-1h4p1----------4h7p4---------|-7-10-7--------11-------------|
|------------------------------|------------------------------|
|
Guitar 2
|------------------------------|------------------------------|
|------------------------------|------------------------------|
|------------------------------|------------------------------|
|--------8h11p8---------8h11p8-|---------5h8----5-------------|
|------------------------------|------------------------------|
|------------------------------|------------------------------|


1:22 - 1:30 (Play 4 times)
Guitar 1
|-----------------|-----------------|
|-----------------|-----------------|
|-9h12p9-6h9p6----|-----------------|
|---------------8-|-----------------|
|-----------------|---------1-------|
|-----------------|-3-2-3-5---5-3-2-|
|
Guitar 2
|-----------------|-----------------|
|-8h11p8-5h8p5----|-----------------|
|---------------6-|-----------------|
|-----------------|-----------------|
|-----------------|-1-0-1-3-5-3-1-0-|
|-----------------|-----------------|

7:10 - 7:18
Guitar 1
|-17-15-------------15-------------------------------------|
|-------18-17-15-------18-17-15-------18-17-15-------------|
|----------------17-------------17-16----------17-16--16---|
|----------------------------------------------------------|
|----------------------------------------------------------|
|----------------------------------------------------------|
|
Guitar 2
|----------------------------------------------------------|
|----------------------------------------------------------|
|-------------------------------------------------------12-|
|-------------------------------------14-------------------|
|-12-------------------------------------------------------|
|----------------------------------------------------------|

Guitar 1
|-------------------------------------------------------------------------|
|-------------------------------------------------------------------------|
|-17----------------17----16----14----14-------------------------14-------|
|-------------------------------------------------------------------------|
|-------------------------------------------------------------------------|
|-------------------------------------------------------------------------|
|
Guitar 2
|-------------------------------------------------------------------------|
|-------------------------------------------------------------------------|
|-14-12-10----------12-10-------------10----------------------10----------|
|----------14-12-10-------14-12-10-------14-12-10----10-12-14----14-12-14-|
|----------------------------------14-------------14----------------------|
|-------------------------------------------------------------------------|

Guitar 1
|---------------------------------|-19p15----------15-22-20-19----|
|---------------------------------|-------17----17-------------20-|
|-17-16-17-14-17-12-16-17-16-14---|----------16-------------------|
|---------------------------------|-------------------------------|
|---------------------------------|-------------------------------|
|---------------------------------|-------------------------------|
|
Guitar 2
|---------------------------------|-----------------------------|
|---------------------------------|-12-10-12-8-12----10-12-10-8-|
|-9-----------------9-------------|---------------10------------|
|---------------------------------|-----------------------------|
|---------------------------------|-----------------------------|
|---------------------------------|-----------------------------|

7:18 - 7:42 (Repeat above riff with 3rd guitar)
Guitar 3
|----------------------------|----------------------------|
|----------------------------|----------------------------|
|----------------------------|----------------------------|
|---------------7------------|---------------7------------|
|------7-8-7------8-7-8-7----|------7-8-7------8-7-8-7----|
|-7-10-------10-----------10-|-7-10-------10-----------10-|

Guitar 3 (continued)
|-------------------------|---------------------|
|-------------------------|---------------------|
|-------------------------|---------------------|
|-------------------------|---------------------|
|-------------------------|-2-0-------2-5-3-2---|
|-10-9-10-7-10-5-9-10-9-7-|-----5-2-5---------5-|

7:42 - 8:05
Guitars 1 & 2
|---------------------|--------------------|
|---------------------|--------------------|
|-7------------9---10-|--------12-12-9--9--|
|--------------7---10-|--------10-10-10-10-|
|-5-------------------|--------------------|
|------0-0-0-0---0----|--0-0-0-------------|

Guitars 1 & 2
|---------------------|--------------------|
|---------------------|--------------------|
|-7------------9---10-|--------12-12-9--9--|
|--------------7---10-|--------10-10-10-10-|
|-5-------------------|--------------------|
|------0-0-0-0---0----|--0-0-0-------------|

Guitar 1
|---------------------|--------------------|
|---------------------|--------------------|
|-7------------9---10-|--------12-12-9--9--|
|--------------7---10-|--------10-10-10-10-|
|-5-------------------|--------------------|
|------0-0-0-0---0----|--0-0-0-------------|
|
Guitar 2
|-----------------------|------------------------|
|-----------------------|------------------------|
|-10-----------10-14-14-|---------15-15-12-12-14-|
|-----------------------|---------13-13-10-10-12-|
|-8------------8--12-12-|------------------------|
|------0-0-0-0----------|---0-0-0----------------|

Guitar 1
|---------------------|--------------------|
|---------------------|--------------------|
|-7------------9---10-|--------12-12-9--9--|
|--------------7---10-|--------10-10-10-10-|
|-5-------------------|--------------------|
|------0-0-0-0---0----|--0-0-0-------------|
|
Guitar 2
|-----------------------|------------------------|
|-----------------------|------------------------|
|-10-----------10-14-14-|---------15-15-12-12-14-|
|-----------------------|---------13-13-10-10-12-|
|-8------------8--12-12-|------------------------|
|------0-0-0-0----------|---0-0-0----------------|





Comments


Popular Arsis tabs & chords
We Are The Nightmare Bass Tabs
Closer To Cold Tabs
Elegant And Perverse Tabs
Servants To The Night Tabs
The Face Of My Innocence Tabs
The Face Of My Innocence 1 Tabs
We Are The Nightmare Tabs
We Are The Nightmare 1 Tabs


Song lyrics



↑ Back to top | Tablatures and chords are parodies/interpretations of the original songs. You may use it for private study, scholarship, research or language learning purposes only
© 2014 AZChords.com Contact us | Privacy policy | DMCA | Add/correct tabs | Request tabs | Top 50 tabs