» » »

A Rocket To The Moon, She's Killing Me Chords (ver.3)

Artists:  A B C D E F G H I J K L M N O P Q R S T U V W X Y Z # 

She's Killing Me Chords (ver.3)

A Rocket To The Moon Tabs
 Rating:
4/5 (4 votes)
She's Killing Me lessons Tabs too difficult? Try these video lessons and learn fast
                

-------------------------------------------------------------------------------
                             She's killing me - A Rocket To the moon
-------------------------------------------------------------------------------

Tuning: Standard Capo on the 2nd Yo!!

      Bsus4          F#            E           Abm          E2       Bb
|-------0------------2-------------0------------6-----------0-------------------|
|-------0------------2-------------0------------6-----------0-------------------|
|-------4------------3-------------1------------4-----------9---------3---------|
|-------4------------4-------------2------------6-----------9---------4---------|
|-------2------------4-------------2------------6-----------7---------1---------|
|--------------------2-------------0------------4-------------------------------|

Intro: Bsus4 F# E

Verse 1

             Bsus4 F#     E
All my friends are coming over 
          Bsus4 F#  E
And I hope nobody told her 
             Bsus4    F#  E
She has a way of turning sunshine into rain
         Bsus4  F#       E
I've got on that shirt she hates
           Bsus4 F#          E
I just know that face she'll make 
               Bsus4  F# E
Even thought it hurts, she's my favorite pain
         Abm           E                F#
She never drives her car she drives me crazy
         Abm           E                F#
She went out of gas and somehow I'm to blame

Chorus

              E                Bsus4
I'll take her out and drop her off
         Abm           F#
On the outskirts of our town
             E            Bsus4               Abm   F#
I'll leave a trail of roses that lead back home (so come back home)
              E                 Bsus4
She'll pick a fight for no good reason
    Abm              F#
She knows I'll never leave 
  E                F#(pause)
I love her half to death but she's killing me

Interlude 

e|---------------------------------------------------------------------------|
B|--5h7-5-x-4--4-4-0-0-0-0-X3------------------------------------------------|
G|-----------------------------------4-last-one-instead-of-0s----------------|
D|---------------------------4-6-4-6-----------------------------------------|
A|---------------------------------------------------------------------------|
E|---------------------------------------------------------------------------|

Verse 2

              Bsus4 F#        E
All my friends, they say they like her
           Bsus4  F#     E
But I know behind my back
         Bsus4 F#    E
They all think the same things, that I do 
               Abm                E
She spends her daddy's credit card 
         F# 
And says that I'm the one whose lazy
             Abm         E                F#
She's like a dream and a nightmare coming true

Repeat chorus

Bridge
Abm    F#              E
And I wouldn't have it any other way
Bsus4/Bb           Abm
She can change her clothes
                   F#
She can change her hair 
           E
But she'll always be the same
           E2                Bsus4
So I went out and bought her roses
     Abm                F#
She complained about the thorns
             E2             Bsus4             Abm
I caught her smiling and that's what I do it for

Repeat chorusx2

Cool little outro

e|---------------------------------------------------------------------------------|
B|--4-4-5-7---7-4-5-7~--4-4-5-7-7-9-7-4--2--4-5-7---4-4-5-7-4---4-2-0-2-0----------|
G|---------------------------------------------------------------------------------|
D|---------------------------------------------------------------------------------|
A|---------------------------------------------------------------------------------|
E|---------------------------------------------------------------------------------|

I love you all ;)
            
Submit corrections

comments powered by Disqus
↑ Back to top | A Rocket To The Moon Chords for She's Killing Me. Lyrics for acoustic guitar and electric guitar. Tablatures and chords are parodies/interpretations of the original songs. You may use it for private study, scholarship, research or language learning purposes only