» » »

Not A Second To Waste Tabs (ver.1)

Artists:  A B C D E F G H I J K L M N O P Q R S T U V W X Y Z # 

Not A Second To Waste Tabs (ver.1)

A Rocket To The Moon
Rating:
0/5 (0 votes)

Tabs too difficult? Try these video lessons and learn fast.
                Capo 3

Verse 1:

e|----------------------------------|
B|----------------------------------|
G|---5--------------5---------------|
D|---5-X12--3-------5--X12--2--X12--|
A|---3------3--X12--3-------2-------|
E|----------1-----------------------|


e|----------------------------------|
B|----------------------------------|
G|---5--------------7-------5-------|
D|---5-X12--3-------7--X12--5--X12--|
A|---3------3--X12--5-------3-------|
E|----------1-----------------------|


I'm checking your pulse 
I'm giving you air     
But your body disagrees 
And no it don't care at all
I'm wasting my time 
Now your eyes roll awake 
You're looking at me
You say "Darling what happened 
Did I fall asleep?" 
And you carry me home
Cause I know I wasn't here


Chorus:
      C
I'm closing your blinds 
I'm shutting your eyes 
        F
And now I 
                     C
I'm afraid I have to go 
   F
Whoa 

       C
And I sing you a song 
But i'm feeling quite off
       F
In my heart
         C 
It's occupied
                F 
And now's not the time 

e|----------------------------------|
B|----------------------------------|
G|---5--------------5---------------|
D|---5-X12--3-------5--X12--2--X12--|
A|---3------3--X12--3-------2-------|
E|----------1-----------------------|



Verse 2:

e|----------------------------------|
B|----------------------------------|
G|---5--------------5---------------|
D|---5-X12--3-------5--X12--2--X12--|
A|---3------3--X12--3-------2-------|
E|----------1-----------------------|


e|----------------------------------|
B|----------------------------------|
G|---5--------------7-------5-------|
D|---5-X12--3-------7--X12--5--X12--|
A|---3------3--X12--5-------3-------|
E|----------1-----------------------|

Let's try this again 
And this time don't laugh
Cause I'm working on my sentences
I'm working on my play on words 
I'll get it this time 
If I am a clock 
Then you are the time
I'm patiently waiting 
In your out of line 
And i'll be the question
If you'll be the answer


Chorus:
      C
I'm closing your blinds 
I'm shutting your eyes 
        F
And now I 
                     C
I'm afraid I have to go 
   F
Whoa 

       C
And I sing you a song 
But i'm feeling quite off
       F
In my heart
         C 
It's occupied
                F 
And now's not the time 


Bridge:

   F
If I am a clock 
Then you are the time 
     C
I'm patiently waiting 
In you're out of line
      F 
I'm counting the times 
You've lied to my face
     C 
My hands were full 
Not a second to waste
 
    F
If I am a clock 
Then you are the time
     C
I'm patiently waiting 
In you're out of line
     F
I'm counting the times 
You've lied to my face
       C  
My hands were full 
Not a second to waste 


Chorus:
 C
I'm closing your blinds 
I'm shutting your eyes 
        F
And now I 
                     C
I'm afraid I have to go 
   F
Whoa 

       C
And I sing you a song 
But i'm feeling quite off
       F
In my heart
         C 
It's occupied
                F 
And now's not the time 

C 
The time...



:D
            
Tabs too difficult? Try these video lessons and learn fast.




comments powered by Disqus
↑ Back to top | Tablatures and chords are parodies/interpretations of the original songs. You may use it for private study, scholarship, research or language learning purposes only