» » »

A Rocket To The Moon, Life Of The Party Tabs (ver.1)

Artists:  A B C D E F G H I J K L M N O P Q R S T U V W X Y Z # 

Life Of The Party Tabs (ver.1)

A Rocket To The Moon Tabs
 Rating:
4.3/5 (6 votes)
Life Of The Party lessons Tabs too difficult? Try these video lessons and learn fast
1
                This is 99% correct.
The intro has no electric guitar so you don't have to play anything.

Verse:
e|----------------------------------------|
B|----------------------------------------|
G|-3-3---3-3---3-3---8-8---10-10-10-10-10-| (REPEAT)
D|-3-3---3-3---3-3---8-8---10-10-10-10-10-|
A|-1-1---1-1---1-1---6-6----8--8--8--8--8-|
E|----------------------------------------|

Intro into the Chorus:
e|-----------------------------|
B|-----------------------------|
G|---3---3---3---3---8---8-10\-| Let these notes ring.
D|-----3-------3-------8---10\-| You can alternatively just
A|-1-------1-------6--------8\-| play the power chords.
E|-----------------------------|

Chorus:
e|-----------------------------------------------------------------|
B|-----------------------------------------------------------------|
G|-3-3-3-3-3-3-3-3-----------------5-5-5-5-5-5-5-5-8-8-8-8-8-8-8-8-|
D|-3-3-3-3-3-3-3-3-3-3-3-3-3-3-3-3-5-5-5-5-5-5-5-5-8-8-8-8-8-8-8-8-|
A|-1-1-1-1-1-1-1-1-3-3-3-3-3-3-3-3-3-3-3-3-3-3-3-3-6-6-6-6-6-6-6-6-|
E|-----------------1-1-1-1-1-1-1-1---------------------------------|

e|----------------------------------------------------|
B|----------------------------------------------------|
G|-3-3-3-3-3-3-3-3-----------------5-5-5-5-5-5-5-5-8\-|
D|-3-3-3-3-3-3-3-3-3-3-3-3-3-3-3-3-5-5-5-5-5-5-5-5-8\-|
A|-1-1-1-1-1-1-1-1-3-3-3-3-3-3-3-3-3-3-3-3-3-3-3-3-6\-|
E|-----------------1-1-1-1-1-1-1-1--------------------|

e|----------------------------------------------------------------|
B|----------------------------------------------------------------|
G|-3-3---------10-10\-5-5---8-8---8-8\-3-3---------10-10\-5-5---8\|
D|-3-3---3-3---10-10\-5-5---8-8---8-8\-3-3---3-3---10-10\-5-5---8\|
A|-1-1---3-3----8--8\-3-3---6-6---6-6\-1-1---3-3----8--8\-3-3---6\|
E|-------1-1---------------------------------1-1------------------|

VERSE
INTRO TO THE CHORUS
CHORUS

Part into the bridge:
e|-----X-X-X-X-X-X------X-X-X-X-X-X-----X-X-X-X-X-X-----X-X------|
B|-----X-X-X-X-X-X------X-X-X-X-X-X-----X-X-X-X-X-X-----X-X------|
G|-----X-X-X-X-X-X--3-3-X-X-X-X-X-X-5-5-X-X-X-X-X-X-8-8-X-X-8--8-| (REPEAT)
D|-5-5-X-X-X-X-X-X--3-3-X-X-X-X-X-X-5-5-X-X-X-X-X-X-8-8-X-X-8--8-|
A|-5-5-X-X-X-X-X-X--1-1-X-X-X-X-X-X-3-3-X-X-X-X-X-X-6-6-X-X-6--6-|
E|-3-3-X-X-X-X-X-X------X-X-X-X-X-X-----X-X-X-X-X-X-----X-X------|

Outro:
e|----------------------------------------------------------------|
B|----------------------------------------------------------------|
G|-3-3---------10-10\-5-5---8-8---8-8\-3-3---------10-10\-5-5---8\| (REPEAT)
D|-3-3---3-3---10-10\-5-5---8-8---8-8\-3-3---3-3---10-10\-5-5---8\|
A|-1-1---3-3----8--8\-3-3---6-6---6-6\-1-1---3-3----8--8\-3-3---6\|
E|-------1-1---------------------------------1-1------------------|

Please rate and let me know if I've made any mistakes :)
            
Submit corrections

comments powered by Disqus
↑ Back to top | A Rocket To The Moon Tabs for Life Of The Party. Lyrics for acoustic guitar and electric guitar. 1 Tablatures and chords are parodies/interpretations of the original songs. You may use it for private study, scholarship, research or language learning purposes only