» » »

Just Another One Tabs (ver.2)

Artists:  A B C D E F G H I J K L M N O P Q R S T U V W X Y Z # 

Just Another One Tabs (ver.2)

A Rocket To The Moon
Rating:
0/5 (0 votes)

Hard to play? Try these video lessons and learn fast.
                -------------------------------------------------------------------------------
                             Just Another One - A Rocket To The Moon
-------------------------------------------------------------------------------

Tuning: Standard  Capo on 4th fret

There are different variations of the verses so just listen to the song and you 
will figure it out.

INTRO/VERSE: 0:01-0:42

e|-------------------------------------------|
B|-------3-------------2---------------------|
G|-------2-------------2------------1--------|
D|-------0-------------2------------2--------|
A|---------------------4------------2--------|
E|-------------------------------------------|
CHORUS: 0:44-0:59

e|----------------------------------------------------------|
B|---------------------2-------------3----------------------|
G|------1--------------2-------------2-----------------2----|
D|------2--------------2-------------0-----------------2----|
A|------2--------------4-------------------------------0----|
E|----------------------------------------------------------|
VERSE: 1:00-1:36

e|----------------------------------------|
B|-------3-------------2------------------|
G|-------2-------------2-------------1----|
D|-------0-------------2-------------2----|
A|---------------------4-------------2----|
E|----------------------------------------|
CHORUS: 1:37-1:52

e|--------------------------------------------------|
B|---------------------2-----------3----------------|
G|-------1-------------2-----------2------------2---|
D|-------2-------------2-----------0------------2---|
A|-------2-------------4------------------------0---|
E|--------------------------------------------------|
BRIDGE: 1:52-218

e|------------------------------------|
B|------3-----------2-----------------|
G|------2-----------2-------------1---|
D|------0-----------2-------------2---|
A|------------------4-------------2---|
E|------------------------------------|
LAST PART OF BRIDGE 2:18-2:21

e|-----------------------------------------------|
B|------3-----------2----------------------------|
G|------2-----------2-------------1----------2---|
D|------0-----------2-------------2----------2---|
A|------------------4-------------2----------0---|
E|-----------------------------------------------|
CHORUS: 2:22-END

e|---------------------------------------------------|
B|--------------------2------------3-----------------|
G|------1-------------2------------2--------------2--|
D|------2-------------2------------0--------------2--|
A|------2-------------4---------------------------0--|
E|---------------------------------------------------|
            
Hard to play? Try these video lessons and learn fast. | Correct




comments powered by Disqus
↑ Back to top | Tablatures and chords are parodies/interpretations of the original songs. You may use it for private study, scholarship, research or language learning purposes only